  0
SECTION
  2
HEADER
  9
$ACADVER
  1
AC1014
  9
$ACADMAINTVER
 70
     5
  9
$DWGCODEPAGE
  3
ANSI_1252
  9
$INSBASE
 10
1216.040237
 20
343.6
 30
0.0
  9
$EXTMIN
 10
1006.090736
 20
342.717413
 30
-0.000019
  9
$EXTMAX
 10
1326.181762
 20
933.672001
 30
0.421764
  9
$LIMMIN
 10
0.0
 20
0.0
  9
$LIMMAX
 10
3360.0
 20
2376.0
  9
$ORTHOMODE
 70
     1
  9
$REGENMODE
 70
     1
  9
$FILLMODE
 70
     1
  9
$QTEXTMODE
 70
     0
  9
$MIRRTEXT
 70
     0
  9
$DRAGMODE
 70
     2
  9
$LTSCALE
 40
1.0
  9
$OSMODE
 70
     0
  9
$ATTMODE
 70
     1
  9
$TEXTSIZE
 40
3.5
  9
$TRACEWID
 40
0.05
  9
$TEXTSTYLE
  7
ROMANS
  9
$CLAYER
  8
035-DWG
  9
$CELTYPE
  6
BYLAYER
  9
$CECOLOR
 62
   256
  9
$CELTSCALE
 40
1.0
  9
$DELOBJ
 70
     1
  9
$DISPSILH
 70
     0
  9
$DIMSCALE
 40
8.0
  9
$DIMASZ
 40
2.5
  9
$DIMEXO
 40
1.5
  9
$DIMDLI
 40
5.0
  9
$DIMRND
 40
0.0
  9
$DIMDLE
 40
0.0
  9
$DIMEXE
 40
1.0
  9
$DIMTP
 40
0.0
  9
$DIMTM
 40
0.0
  9
$DIMTXT
 40
3.0
  9
$DIMCEN
 40
-2.0
  9
$DIMTSZ
 40
0.0
  9
$DIMTOL
 70
     0
  9
$DIMLIM
 70
     0
  9
$DIMTIH
 70
     0
  9
$DIMTOH
 70
     0
  9
$DIMSE1
 70
     0
  9
$DIMSE2
 70
     0
  9
$DIMTAD
 70
     1
  9
$DIMZIN
 70
     8
  9
$DIMBLK
  1

  9
$DIMASO
 70
     1
  9
$DIMSHO
 70
     1
  9
$DIMPOST
  1

  9
$DIMAPOST
  1

  9
$DIMALT
 70
     0
  9
$DIMALTD
 70
     2
  9
$DIMALTF
 40
25.4
  9
$DIMLFAC
 40
1.0
  9
$DIMTOFL
 70
     1
  9
$DIMTVP
 40
0.0
  9
$DIMTIX
 70
     0
  9
$DIMSOXD
 70
     0
  9
$DIMSAH
 70
     0
  9
$DIMBLK1
  1

  9
$DIMBLK2
  1

  9
$DIMSTYLE
  2
STANDAARD
  9
$DIMCLRD
 70
   256
  9
$DIMCLRE
 70
   256
  9
$DIMCLRT
 70
   256
  9
$DIMTFAC
 40
0.75
  9
$DIMGAP
 40
1.5
  9
$DIMJUST
 70
     0
  9
$DIMSD1
 70
     0
  9
$DIMSD2
 70
     0
  9
$DIMTOLJ
 70
     1
  9
$DIMTZIN
 70
     8
  9
$DIMALTZ
 70
     8
  9
$DIMALTTZ
 70
     8
  9
$DIMFIT
 70
     3
  9
$DIMUPT
 70
     0
  9
$DIMUNIT
 70
     2
  9
$DIMDEC
 70
     0
  9
$DIMTDEC
 70
     1
  9
$DIMALTU
 70
     2
  9
$DIMALTTD
 70
     2
  9
$DIMTXSTY
  7
ROMANS
  9
$DIMAUNIT
 70
     0
  9
$LUNITS
 70
     2
  9
$LUPREC
 70
     4
  9
$SKETCHINC
 40
0.1
  9
$FILLETRAD
 40
6.0
  9
$AUNITS
 70
     0
  9
$AUPREC
 70
     4
  9
$MENU
  1
wtb2
  9
$ELEVATION
 40
0.0
  9
$PELEVATION
 40
0.0
  9
$THICKNESS
 40
0.0
  9
$LIMCHECK
 70
     0
  9
$BLIPMODE
 70
     0
  9
$CHAMFERA
 40
0.0
  9
$CHAMFERB
 40
0.0
  9
$CHAMFERC
 40
0.0
  9
$CHAMFERD
 40
0.0
  9
$SKPOLY
 70
     0
  9
$TDCREATE
 40
2451578.409790035
  9
$TDUPDATE
 40
2452584.394580879
  9
$TDINDWG
 40
3.1205870139
  9
$TDUSRTIMER
 40
3.1205870139
  9
$USRTIMER
 70
     1
  9
$ANGBASE
 50
0.0
  9
$ANGDIR
 70
     0
  9
$PDMODE
 70
     3
  9
$PDSIZE
 40
0.0
  9
$PLINEWID
 40
0.0
  9
$COORDS
 70
     2
  9
$SPLFRAME
 70
     0
  9
$SPLINETYPE
 70
     6
  9
$SPLINESEGS
 70
     8
  9
$ATTDIA
 70
     0
  9
$ATTREQ
 70
     1
  9
$HANDLING
 70
     1
  9
$HANDSEED
  5
1B2
  9
$SURFTAB1
 70
     6
  9
$SURFTAB2
 70
     6
  9
$SURFTYPE
 70
     6
  9
$SURFU
 70
     6
  9
$SURFV
 70
     6
  9
$UCSNAME
  2

  9
$UCSORG
 10
0.0
 20
0.0
 30
0.0
  9
$UCSXDIR
 10
1.0
 20
0.0
 30
0.0
  9
$UCSYDIR
 10
0.0
 20
1.0
 30
0.0
  9
$PUCSNAME
  2

  9
$PUCSORG
 10
0.0
 20
0.0
 30
0.0
  9
$PUCSXDIR
 10
1.0
 20
0.0
 30
0.0
  9
$PUCSYDIR
 10
0.0
 20
1.0
 30
0.0
  9
$USERI1
 70
     0
  9
$USERI2
 70
     0
  9
$USERI3
 70
     0
  9
$USERI4
 70
     0
  9
$USERI5
 70
     0
  9
$USERR1
 40
0.0
  9
$USERR2
 40
0.0
  9
$USERR3
 40
0.0
  9
$USERR4
 40
0.0
  9
$USERR5
 40
0.0
  9
$WORLDVIEW
 70
     1
  9
$SHADEDGE
 70
     3
  9
$SHADEDIF
 70
    70
  9
$TILEMODE
 70
     1
  9
$MAXACTVP
 70
    16
  9
$PINSBASE
 10
0.0
 20
0.0
 30
0.0
  9
$PLIMCHECK
 70
     0
  9
$PEXTMIN
 10
1.000000E+20
 20
1.000000E+20
 30
1.000000E+20
  9
$PEXTMAX
 10
-1.000000E+20
 20
-1.000000E+20
 30
-1.000000E+20
  9
$PLIMMIN
 10
0.0
 20
0.0
  9
$PLIMMAX
 10
12.0
 20
9.0
  9
$UNITMODE
 70
     0
  9
$VISRETAIN
 70
     0
  9
$PLINEGEN
 70
     0
  9
$PSLTSCALE
 70
     0
  9
$TREEDEPTH
 70
  3020
  9
$PICKSTYLE
 70
     1
  9
$CMLSTYLE
  2
STANDARD
  9
$CMLJUST
 70
     0
  9
$CMLSCALE
 40
1.0
  9
$PROXYGRAPHICS
 70
     1
  9
$MEASUREMENT
 70
     0
  0
ENDSEC
  0
SECTION
  2
CLASSES
  0
CLASS
  1
LWPOLYLINE
  2
AcDbPolyline
  3
"AutoCAD"
 90
        0
280
     0
281
     1
  0
CLASS
  1
HATCH
  2
AcDbHatch
  3
"ACAD_SEDONA"
 90
        0
280
     0
281
     1
  0
CLASS
  1
ACMDATUMID
  2
AcmDatumId
  3
AutoCadMServices
 90
      255
280
     1
281
     1
  0
CLASS
  1
ACMFCFRAME
  2
AcmFCF
  3
AutoCadMServices
 90
      255
280
     1
281
     1
  0
CLASS
  1
AMLOADER
  2
AMLoader
  3
AMAcad
 90
        0
280
     0
281
     0
  0
ENDSEC
  0
SECTION
  2
TABLES
  0
TABLE
  2
VPORT
  5
12
100
AcDbSymbolTable
 70
     2
  0
VPORT
  5
1B1
100
AcDbSymbolTableRecord
100
AcDbViewportTableRecord
  2
*ACTIVE
 70
     0
 10
0.0
 20
0.0
 11
1.0
 21
1.0
 12
1166.136249
 22
638.194707
 13
0.0
 23
0.0
 14
20.0
 24
20.0
 15
40.0
 25
40.0
 16
0.0
 26
0.0
 36
1.0
 17
0.0
 27
0.0
 37
0.0
 40
597.606985
 41
1.650376
 42
50.0
 43
0.0
 44
0.0
 50
0.0
 51
0.0
 71
     0
 72
 20000
 73
     1
 74
     0
 75
     0
 76
     0
 77
     0
 78
     1
  0
ENDTAB
  0
TABLE
  2
LTYPE
  5
D
100
AcDbSymbolTable
 70
     1
  0
LTYPE
  5
E
100
AcDbSymbolTableRecord
100
AcDbLinetypeTableRecord
  2
BYBLOCK
 70
     0
  3

 72
    65
 73
     0
 40
0.0
  0
LTYPE
  5
F
100
AcDbSymbolTableRecord
100
AcDbLinetypeTableRecord
  2
BYLAYER
 70
     0
  3

 72
    65
 73
     0
 40
0.0
  0
LTYPE
  5
5
100
AcDbSymbolTableRecord
100
AcDbLinetypeTableRecord
  2
CONTINUOUS
 70
     0
  3
Solid line
 72
    65
 73
     0
 40
0.0
  0
ENDTAB
  0
TABLE
  2
LAYER
  5
A
100
AcDbSymbolTable
 70
     6
  0
LAYER
  5
4
100
AcDbSymbolTableRecord
100
AcDbLayerTableRecord
  2
0
 70
     0
 62
     8
  6
CONTINUOUS
  0
LAYER
  5
20
100
AcDbSymbolTableRecord
100
AcDbLayerTableRecord
  2
025-DWG
 70
     0
 62
     7
  6
CONTINUOUS
  0
LAYER
  5
1B
100
AcDbSymbolTableRecord
100
AcDbLayerTableRecord
  2
035-DWG
 70
     0
 62
     2
  6
CONTINUOUS
  0
LAYER
  5
F8
100
AcDbSymbolTableRecord
100
AcDbLayerTableRecord
  2
DEFPOINTS
 70
     0
 62
     7
  6
CONTINUOUS
  0
LAYER
  5
41
100
AcDbSymbolTableRecord
100
AcDbLayerTableRecord
  2
VHH-025
 70
     0
 62
     7
  6
CONTINUOUS
  0
LAYER
  5
3E
100
AcDbSymbolTableRecord
100
AcDbLayerTableRecord
  2
VHH-035
 70
     0
 62
     2
  6
CONTINUOUS
  0
ENDTAB
  0
TABLE
  2
STYLE
  5
B
100
AcDbSymbolTable
 70
     2
  0
STYLE
  5
C
100
AcDbSymbolTableRecord
100
AcDbTextStyleTableRecord
  2
STANDARD
 70
     0
 40
0.0
 41
1.0
 50
0.0
 71
     0
 42
15.0
  3
txt
  4

  0
STYLE
  5
1C
100
AcDbSymbolTableRecord
100
AcDbTextStyleTableRecord
  2
ROMANS
 70
     0
 40
0.0
 41
1.0
 50
0.0
 71
     0
 42
3.5
  3
romans
  4

  0
ENDTAB
  0
TABLE
  2
VIEW
  5
10
100
AcDbSymbolTable
 70
     0
  0
ENDTAB
  0
TABLE
  2
UCS
  5
11
100
AcDbSymbolTable
 70
     0
  0
ENDTAB
  0
TABLE
  2
APPID
  5
14
100
AcDbSymbolTable
 70
     1
  0
APPID
  5
15
100
AcDbSymbolTableRecord
100
AcDbRegAppTableRecord
  2
ACAD
 70
     0
  0
ENDTAB
  0
TABLE
  2
DIMSTYLE
  5
16
100
AcDbSymbolTable
 70
     1
  0
DIMSTYLE
105
1E
100
AcDbSymbolTableRecord
100
AcDbDimStyleTableRecord
  2
STANDAARD
 70
     0
  3

  4

  5

  6

  7

 40
8.0
 41
2.5
 42
1.5
 43
5.0
 44
1.0
 45
0.0
 46
0.0
 47
0.0
 48
0.0
140
3.0
141
-2.0
142
0.0
143
25.4
144
1.0
145
0.0
146
0.75
147
1.5
 71
     0
 72
     0
 73
     0
 74
     0
 75
     0
 76
     0
 77
     1
 78
     8
170
     0
171
     2
172
     1
173
     0
174
     0
175
     0
176
   256
177
   256
178
   256
270
     2
271
     0
272
     1
273
     2
274
     2
340
1C
275
     0
280
     0
281
     0
282
     0
283
     1
284
     8
285
     8
286
     8
287
     3
288
     0
  0
ENDTAB
  0
TABLE
  2
BLOCK_RECORD
  5
1
100
AcDbSymbolTable
 70
     0
  0
BLOCK_RECORD
  5
2
100
AcDbSymbolTableRecord
100
AcDbBlockTableRecord
  2
*MODEL_SPACE
  0
BLOCK_RECORD
  5
7
100
AcDbSymbolTableRecord
100
AcDbBlockTableRecord
  2
*PAPER_SPACE
  0
ENDTAB
  0
ENDSEC
  0
SECTION
  2
BLOCKS
  0
BLOCK
  5
3
100
AcDbEntity
  8
0
100
AcDbBlockBegin
  2
*MODEL_SPACE
 70
     0
 10
0.0
 20
0.0
 30
0.0
  3
*MODEL_SPACE
  1

  0
ENDBLK
  5
6
100
AcDbEntity
  8
0
100
AcDbBlockEnd
  0
BLOCK
  5
8
100
AcDbEntity
 67
     1
  8
0
100
AcDbBlockBegin
  2
*PAPER_SPACE
 70
     0
 10
0.0
 20
0.0
 30
0.0
  3
*PAPER_SPACE
  1

  0
ENDBLK
  5
9
100
AcDbEntity
 67
     1
  8
0
100
AcDbBlockEnd
  0
ENDSEC
  0
SECTION
  2
ENTITIES
  0
LINE
  5
1F
100
AcDbEntity
  8
025-DWG
100
AcDbLine
 10
1111.019397
 20
518.0
 30
0.0
 11
1111.019397
 21
382.7
 31
0.0
  0
LINE
  5
21
100
AcDbEntity
  8
025-DWG
100
AcDbLine
 10
1111.455862
 20
382.7
 30
0.0
 11
1111.455862
 21
518.0
 31
0.0
  0
LINE
  5
22
100
AcDbEntity
  8
035-DWG
100
AcDbLine
 10
1113.709578
 20
382.7
 30
0.0
 11
1113.709578
 21
518.0
 31
0.0
  0
LINE
  5
23
100
AcDbEntity
  8
035-DWG
100
AcDbLine
 10
1110.040237
 20
511.860317
 30
0.0
 11
1110.040237
 21
382.7
 31
0.0
  0
LINE
  5
24
100
AcDbEntity
  8
035-DWG
100
AcDbLine
 10
1319.440237
 20
381.6
 30
0.0
 11
1319.440237
 21
776.069091
 31
0.0
  0
LINE
  5
25
100
AcDbEntity
  8
035-DWG
100
AcDbLine
 10
1121.040237
 20
343.6
 30
0.0
 11
1285.240237
 21
343.6
 31
0.0
  0
LINE
  5
26
100
AcDbEntity
  8
025-DWG
100
AcDbLine
 10
1318.190237
 20
373.6
 30
0.0
 11
1113.890237
 21
373.6
 31
0.0
  0
LINE
  5
27
100
AcDbEntity
  8
035-DWG
100
AcDbLine
 10
1319.440237
 20
381.6
 30
0.0
 11
1112.640237
 21
381.6
 31
0.0
  0
LINE
  5
28
100
AcDbEntity
  8
035-DWG
100
AcDbLine
 10
1314.390237
 20
343.6
 30
0.0
 11
1117.690237
 21
343.6
 31
0.0
  0
LINE
  5
29
100
AcDbEntity
  8
035-DWG
100
AcDbLine
 10
1113.890237
 20
373.6
 30
0.0
 11
1113.890237
 21
347.4
 31
0.0
  0
ARC
  5
2A
100
AcDbEntity
  8
035-DWG
100
AcDbCircle
 10
1117.690237
 20
347.4
 30
0.0
 40
3.8
100
AcDbArc
 50
180.0
 51
270.0
  0
ARC
  5
2B
100
AcDbEntity
  8
035-DWG
100
AcDbCircle
 10
1113.890237
 20
377.6
 30
0.0
 40
4.0
100
AcDbArc
 50
90.0
 51
270.0
  0
LINE
  5
2C
100
AcDbEntity
  8
035-DWG
100
AcDbLine
 10
1111.516797
 20
382.2
 30
0.0
 11
1110.540237
 21
382.2
 31
0.0
  0
LINE
  5
2D
100
AcDbEntity
  8
025-DWG
100
AcDbLine
 10
1110.040237
 20
382.7
 30
0.0
 11
1111.019397
 21
382.7
 31
0.0
  0
ELLIPSE
  5
2E
100
AcDbEntity
  8
025-DWG
100
AcDbEllipse
 10
1111.516797
 20
382.7
 30
0.0
 11
-0.0000000000000268
 21
0.5
 31
0.0
210
0.0
220
0.0
230
1.0
 40
0.121869
 41
1.570796326794435
 42
3.141592653589354
  0
ELLIPSE
  5
2F
100
AcDbEntity
  8
025-DWG
100
AcDbEllipse
 10
1111.516797
 20
382.7
 30
0.0
 11
-0.000000000024182
 21
0.5
 31
0.0
210
0.0
220
0.0
230
1.0
 40
0.9948
 41
1.570796326746783
 42
3.141592653541176
  0
LINE
  5
30
100
AcDbEntity
  8
025-DWG
100
AcDbLine
 10
1111.019397
 20
382.7
 30
0.0
 11
1111.455862
 21
382.7
 31
0.0
  0
ARC
  5
31
100
AcDbEntity
  8
035-DWG
100
AcDbCircle
 10
1110.540237
 20
382.7
 30
0.0
 40
0.5
100
AcDbArc
 50
180.0
 51
270.0
  0
LWPOLYLINE
  5
32
100
AcDbEntity
  8
035-DWG
100
AcDbPolyline
 90
       17
 70
     0
 43
0.0
 10
1113.655277
 20
382.2
 10
1113.660408
 20
382.202367
 10
1113.665629
 20
382.209507
 10
1113.670844
 20
382.221475
 10
1113.675956
 20
382.238327
 10
1113.680872
 20
382.260004
 10
1113.685518
 20
382.285982
 10
1113.689825
 20
382.315619
 10
1113.693723
 20
382.348274
 10
1113.697166
 20
382.38337
 10
1113.700314
 20
382.422297
 10
1113.703091
 20
382.464465
 10
1113.705422
 20
382.509283
 10
1113.707243
 20
382.55611
 10
1113.708541
 20
382.604102
 10
1113.709319
 20
382.652364
 10
1113.709578
 20
382.7
  0
LINE
  5
33
100
AcDbEntity
  8
035-DWG
100
AcDbLine
 10
1111.516797
 20
382.2
 30
0.0
 11
1113.655277
 21
382.2
 31
0.0
  0
LINE
  5
34
100
AcDbEntity
  8
025-DWG
100
AcDbLine
 10
1113.709578
 20
382.7
 30
0.0
 11
1111.455862
 21
382.7
 31
0.0
  0
LINE
  5
35
100
AcDbEntity
  8
035-DWG
100
AcDbLine
 10
1112.640237
 20
382.2
 30
0.0
 11
1112.640237
 21
381.6
 31
0.0
  0
LINE
  5
36
100
AcDbEntity
  8
035-DWG
100
AcDbLine
 10
1112.640237
 20
381.6
 30
0.0
 11
1112.640237
 21
382.2
 31
0.0
  0
LINE
  5
37
100
AcDbEntity
  8
035-DWG
100
AcDbLine
 10
1318.190237
 20
373.6
 30
0.0
 11
1318.190237
 21
347.4
 31
0.0
  0
ARC
  5
38
100
AcDbEntity
  8
035-DWG
100
AcDbCircle
 10
1314.390237
 20
347.4
 30
0.0
 40
3.8
100
AcDbArc
 50
270.0
 51
360.0
  0
ARC
  5
39
100
AcDbEntity
  8
035-DWG
100
AcDbCircle
 10
1314.390237
 20
347.4
 30
0.0
 40
3.8
100
AcDbArc
 50
343.173551
 51
360.0
  0
ARC
  5
3A
100
AcDbEntity
  8
035-DWG
100
AcDbCircle
 10
1318.190237
 20
377.6
 30
0.0
 40
4.0
100
AcDbArc
 50
270.0
 51
90.0
  0
LINE
  5
3B
100
AcDbEntity
  8
035-DWG
100
AcDbLine
 10
1316.340237
 20
874.970653
 30
0.0
 11
1316.340237
 21
793.069091
 31
0.0
  0
LINE
  5
3C
100
AcDbEntity
  8
035-DWG
100
AcDbLine
 10
1115.740237
 20
874.970653
 30
0.0
 11
1115.740237
 21
793.069091
 31
0.0
  0
ARC
  5
3D
100
AcDbEntity
  8
VHH-035
100
AcDbCircle
 10
1014.25364
 20
525.832821
 30
0.0
 40
53.758367
100
AcDbArc
 50
45.502135
 51
64.279377
  0
ARC
  5
3F
100
AcDbEntity
  8
VHH-035
100
AcDbCircle
 10
1014.25364
 20
525.832821
 30
0.0
 40
50.670673
100
AcDbArc
 50
53.824524
 51
64.279377
  0
ARC
  5
40
100
AcDbEntity
  8
VHH-025
100
AcDbCircle
 10
1042.035695
 20
545.774683
 30
0.0
 40
0.804379
100
AcDbArc
 50
115.616291
 51
181.758476
  0
ARC
  5
42
100
AcDbEntity
  8
VHH-035
100
AcDbCircle
 10
1054.170255
 20
554.134442
 30
0.0
 40
14.071985
100
AcDbArc
 50
142.675716
 51
203.021422
  0
ARC
  5
43
100
AcDbEntity
  8
VHH-035
100
AcDbCircle
 10
1044.440237
 20
550.0
 30
0.0
 40
3.5
100
AcDbArc
 50
203.021422
 51
270.0
  0
ARC
  5
44
100
AcDbEntity
  8
VHH-035
100
AcDbCircle
 10
1044.440237
 20
550.0
 30
0.0
 40
3.5
100
AcDbArc
 50
96.0
 51
203.021422
  0
ARC
  5
45
100
AcDbEntity
  8
VHH-035
100
AcDbCircle
 10
1015.555805
 20
518.369425
 30
0.0
 40
62.5
100
AcDbArc
 50
54.433004
 51
71.886042
  0
LINE
  5
46
100
AcDbEntity
  8
VHH-035
100
AcDbLine
 10
1035.524187
 20
546.5
 30
0.0
 11
1065.356286
 21
546.5
 31
0.0
  0
ARC
  5
47
100
AcDbEntity
  8
VHH-035
100
AcDbCircle
 10
1040.440237
 20
508.0
 30
0.0
 40
2.0
100
AcDbArc
 50
0.0
 51
90.0
  0
LINE
  5
48
100
AcDbEntity
  8
VHH-035
100
AcDbLine
 10
1066.440237
 20
536.2
 30
0.0
 11
1034.440237
 21
536.2
 31
0.0
  0
LINE
  5
49
100
AcDbEntity
  8
VHH-035
100
AcDbLine
 10
1066.440237
 20
536.0
 30
0.0
 11
1034.440237
 21
536.0
 31
0.0
  0
LINE
  5
4A
100
AcDbEntity
  8
VHH-035
100
AcDbLine
 10
1034.567827
 20
510.0
 30
0.0
 11
1065.24159
 21
510.0
 31
0.0
  0
LINE
  5
4B
100
AcDbEntity
  8
VHH-025
100
AcDbLine
 10
1041.076724
 20
538.2
 30
0.0
 11
1041.231695
 21
545.75
 31
0.0
  0
LINE
  5
4C
100
AcDbEntity
  8
VHH-025
100
AcDbLine
 10
1034.792245
 20
538.2
 30
0.0
 11
1035.051227
 21
545.75
 31
0.0
  0
LINE
  5
4D
100
AcDbEntity
  8
VHH-025
100
AcDbLine
 10
1035.289756
 20
538.2
 30
0.0
 11
1036.26439
 21
546.3
 31
0.0
  0
LINE
  5
4E
100
AcDbEntity
  8
VHH-025
100
AcDbLine
 10
1035.289756
 20
538.2
 30
0.0
 11
1035.540503
 21
545.75
 31
0.0
  0
LINE
  5
4F
100
AcDbEntity
  8
VHH-025
100
AcDbLine
 10
1036.026198
 20
538.2
 30
0.0
 11
1036.264758
 21
545.75
 31
0.0
  0
LINE
  5
50
100
AcDbEntity
  8
VHH-035
100
AcDbLine
 10
1034.440237
 20
536.2
 30
0.0
 11
1034.774644
 21
545.776175
 31
0.0
  0
LINE
  5
51
100
AcDbEntity
  8
VHH-025
100
AcDbLine
 10
1034.541513
 20
538.2
 30
0.0
 11
1034.804644
 21
545.75
 31
0.0
  0
LINE
  5
52
100
AcDbEntity
  8
VHH-025
100
AcDbLine
 10
1036.989959
 20
538.2
 30
0.0
 11
1037.846771
 21
546.3
 31
0.0
  0
LINE
  5
53
100
AcDbEntity
  8
VHH-025
100
AcDbLine
 10
1036.989959
 20
538.2
 30
0.0
 11
1037.212567
 21
545.75
 31
0.0
  0
LINE
  5
54
100
AcDbEntity
  8
VHH-025
100
AcDbLine
 10
1038.165838
 20
538.2
 30
0.0
 11
1038.368986
 21
545.75
 31
0.0
  0
LINE
  5
55
100
AcDbEntity
  8
VHH-025
100
AcDbLine
 10
1039.535293
 20
538.2
 30
0.0
 11
1040.229961
 21
546.3
 31
0.0
  0
LINE
  5
56
100
AcDbEntity
  8
VHH-025
100
AcDbLine
 10
1039.535293
 20
538.2
 30
0.0
 11
1039.715775
 21
545.75
 31
0.0
  0
LINE
  5
57
100
AcDbEntity
  8
VHH-025
100
AcDbLine
 10
1034.541513
 20
538.2
 30
0.0
 11
1034.888818
 21
541.015347
 31
0.0
  0
LINE
  5
58
100
AcDbEntity
  8
VHH-035
100
AcDbLine
 10
1033.568436
 20
511.034899
 30
0.0
 11
1034.440237
 21
536.0
 31
0.0
  0
ARC
  5
59
100
AcDbEntity
  8
VHH-035
100
AcDbCircle
 10
1034.567827
 20
511.0
 30
0.0
 40
1.0
100
AcDbArc
 50
178.0
 51
270.0
  0
LINE
  5
5A
100
AcDbEntity
  8
VHH-025
100
AcDbLine
 10
1034.792245
 20
538.2
 30
0.0
 11
1034.510078
 21
538.2
 31
0.0
  0
LINE
  5
5B
100
AcDbEntity
  8
VHH-025
100
AcDbLine
 10
1036.026198
 20
538.2
 30
0.0
 11
1035.289756
 21
538.2
 31
0.0
  0
LINE
  5
5C
100
AcDbEntity
  8
VHH-025
100
AcDbLine
 10
1041.076724
 20
538.2
 30
0.0
 11
1039.535293
 21
538.2
 31
0.0
  0
LINE
  5
5D
100
AcDbEntity
  8
VHH-025
100
AcDbLine
 10
1038.165838
 20
538.2
 30
0.0
 11
1036.989959
 21
538.2
 31
0.0
  0
ARC
  5
5E
100
AcDbEntity
  8
VHH-035
100
AcDbCircle
 10
1057.65198
 20
615.924908
 30
0.0
 40
46.241633
100
AcDbArc
 50
210.863553
 51
229.812431
  0
ARC
  5
5F
100
AcDbEntity
  8
VHH-035
100
AcDbCircle
 10
1029.767232
 20
602.554382
 30
0.0
 40
24.0
100
AcDbArc
 50
198.840145
 51
232.334067
  0
ARC
  5
60
100
AcDbEntity
  8
VHH-035
100
AcDbCircle
 10
1057.65198
 20
615.924908
 30
0.0
 40
49.329327
100
AcDbArc
 50
211.14031
 51
236.589368
  0
ARC
  5
61
100
AcDbEntity
  8
VHH-025
100
AcDbCircle
 10
1037.115375
 20
545.657295
 30
0.0
 40
0.855654
100
AcDbArc
 50
99.980708
 51
173.780152
  0
ARC
  5
62
100
AcDbEntity
  8
VHH-025
100
AcDbCircle
 10
1036.338424
 20
545.702213
 30
0.0
 40
0.799351
100
AcDbArc
 50
93.584
 51
176.572659
  0
ARC
  5
63
100
AcDbEntity
  8
VHH-035
100
AcDbCircle
 10
1035.524187
 20
545.75
 30
0.0
 40
0.75
100
AcDbArc
 50
90.0
 51
178.0
  0
ARC
  5
64
100
AcDbEntity
  8
VHH-025
100
AcDbCircle
 10
1036.477569
 20
546.286574
 30
0.0
 40
0.213601
100
AcDbArc
 50
92.321809
 51
176.396337
  0
ARC
  5
65
100
AcDbEntity
  8
VHH-025
100
AcDbCircle
 10
1035.572078
 20
545.732393
 30
0.0
 40
0.767636
100
AcDbArc
 50
89.502437
 51
178.68571
  0
ARC
  5
66
100
AcDbEntity
  8
VHH-025
100
AcDbCircle
 10
1035.8837
 20
545.666262
 30
0.0
 40
0.836674
100
AcDbArc
 50
94.801375
 51
174.255958
  0
ARC
  5
67
100
AcDbEntity
  8
VHH-025
100
AcDbCircle
 10
1037.972446
 20
545.74734
 30
0.0
 40
0.759883
100
AcDbArc
 50
97.905868
 51
179.799397
  0
ARC
  5
68
100
AcDbEntity
  8
VHH-025
100
AcDbCircle
 10
1039.191789
 20
545.707334
 30
0.0
 40
0.823909
100
AcDbArc
 50
105.829218
 51
177.031654
  0
ARC
  5
69
100
AcDbEntity
  8
VHH-025
100
AcDbCircle
 10
1040.493173
 20
545.762464
 30
0.0
 40
0.777499
100
AcDbArc
 50
108.449943
 51
180.918575
  0
ARC
  5
6A
100
AcDbEntity
  8
VHH-025
100
AcDbCircle
 10
1038.089266
 20
546.259874
 30
0.0
 40
0.245793
100
AcDbArc
 50
102.326831
 51
170.604314
  0
ARC
  5
6B
100
AcDbEntity
  8
VHH-025
100
AcDbCircle
 10
1040.409403
 20
546.321112
 30
0.0
 40
0.180679
100
AcDbArc
 50
98.074916
 51
186.710338
  0
ARC
  5
6C
100
AcDbEntity
  8
VHH-035
100
AcDbCircle
 10
1057.65198
 20
615.924908
 30
0.0
 40
46.241633
100
AcDbArc
 50
229.812431
 51
244.279377
  0
ARC
  5
6D
100
AcDbEntity
  8
VHH-035
100
AcDbCircle
 10
1053.276752
 20
634.916525
 30
0.0
 40
60.0
100
AcDbArc
 50
244.918514
 51
252.252667
  0
ARC
  5
6E
100
AcDbEntity
  8
VHH-035
100
AcDbCircle
 10
1057.65198
 20
615.924908
 30
0.0
 40
49.329327
100
AcDbArc
 50
236.589368
 51
244.279377
  0
ARC
  5
6F
100
AcDbEntity
  8
VHH-035
100
AcDbCircle
 10
1052.680164
 20
632.240196
 30
0.0
 40
61.5
100
AcDbArc
 50
232.336052
 51
248.357869
  0
ARC
  5
70
100
AcDbEntity
  8
VHH-035
100
AcDbCircle
 10
1011.15132
 20
587.829278
 30
0.0
 40
5.0
100
AcDbArc
 50
31.14031
 51
65.333826
  0
LINE
  5
71
100
AcDbEntity
  8
VHH-035
100
AcDbLine
 10
1010.881362
 20
596.4193
 30
0.0
 11
1015.753256
 21
594.181964
 31
0.0
  0
ARC
  5
72
100
AcDbEntity
  8
VHH-035
100
AcDbCircle
 10
1010.672697
 20
595.964923
 30
0.0
 40
0.5
100
AcDbArc
 50
65.333826
 51
107.620993
  0
ARC
  5
73
100
AcDbEntity
  8
VHH-035
100
AcDbCircle
 10
1007.526286
 20
594.965554
 30
0.0
 40
0.5
100
AcDbArc
 50
107.620993
 51
198.840145
  0
LINE
  5
74
100
AcDbEntity
  8
VHH-035
100
AcDbLine
 10
1007.084173
 20
595.199083
 30
0.0
 11
1013.237973
 21
592.373052
 31
0.0
  0
LINE
  5
75
100
AcDbEntity
  8
VHH-035
100
AcDbLine
 10
1007.374926
 20
595.442093
 30
0.0
 11
1010.521338
 21
596.441463
 31
0.0
  0
ARC
  5
76
100
AcDbEntity
  8
VHH-035
100
AcDbCircle
 10
1013.666602
 20
589.63819
 30
0.0
 40
5.0
100
AcDbArc
 50
30.863553
 51
65.333826
  0
LINE
  5
77
100
AcDbEntity
  8
VHH-035
100
AcDbLine
 10
1016.514764
 20
593.009198
 30
0.0
 11
1015.105146
 21
591.938718
 31
0.0
  0
LINE
  5
78
100
AcDbEntity
  8
035-DWG
100
AcDbLine
 10
1114.604421
 20
557.813668
 30
0.0
 11
1114.604421
 21
514.457484
 31
0.0
  0
LINE
  5
79
100
AcDbEntity
  8
VHH-025
100
AcDbLine
 10
1065.590718
 20
538.2
 30
0.0
 11
1065.33997
 21
545.75
 31
0.0
  0
LINE
  5
7A
100
AcDbEntity
  8
VHH-035
100
AcDbLine
 10
1056.240237
 20
528.884192
 30
0.0
 11
1114.604421
 21
540.034715
 31
0.0
  0
LINE
  5
7B
100
AcDbEntity
  8
VHH-025
100
AcDbLine
 10
1065.590718
 20
538.2
 30
0.0
 11
1064.616083
 21
546.3
 31
0.0
  0
LINE
  5
7C
100
AcDbEntity
  8
VHH-035
100
AcDbLine
 10
1066.440237
 20
536.0
 30
0.0
 11
1094.240237
 21
543.942857
 31
0.0
  0
LINE
  5
7D
100
AcDbEntity
  8
VHH-035
100
AcDbLine
 10
1066.440237
 20
536.0
 30
0.0
 11
1094.240237
 21
543.942857
 31
0.0
  0
LINE
  5
7E
100
AcDbEntity
  8
VHH-025
100
AcDbLine
 10
1066.088228
 20
538.2
 30
0.0
 11
1065.829246
 21
545.75
 31
0.0
  0
LINE
  5
7F
100
AcDbEntity
  8
VHH-035
100
AcDbLine
 10
1066.105829
 20
545.776175
 30
0.0
 11
1066.440237
 21
536.2
 31
0.0
  0
LINE
  5
80
100
AcDbEntity
  8
VHH-025
100
AcDbLine
 10
1066.33896
 20
538.2
 30
0.0
 11
1066.075829
 21
545.75
 31
0.0
  0
LINE
  5
81
100
AcDbEntity
  8
VHH-025
100
AcDbLine
 10
1066.33896
 20
538.2
 30
0.0
 11
1065.991655
 21
541.015347
 31
0.0
  0
LINE
  5
82
100
AcDbEntity
  8
VHH-025
100
AcDbLine
 10
1053.920502
 20
538.2
 30
0.0
 11
1053.854935
 21
545.75
 31
0.0
  0
LINE
  5
83
100
AcDbEntity
  8
VHH-025
100
AcDbLine
 10
1053.920502
 20
538.2
 30
0.0
 11
1053.668135
 21
546.3
 31
0.0
  0
LINE
  5
84
100
AcDbEntity
  8
VHH-025
100
AcDbLine
 10
1051.955411
 20
538.2
 30
0.0
 11
1051.922367
 21
545.75
 31
0.0
  0
LINE
  5
85
100
AcDbEntity
  8
VHH-025
100
AcDbLine
 10
1046.959971
 20
538.2
 30
0.0
 11
1047.025539
 21
545.75
 31
0.0
  0
LINE
  5
86
100
AcDbEntity
  8
VHH-025
100
AcDbLine
 10
1046.959971
 20
538.2
 30
0.0
 11
1047.212338
 21
546.3
 31
0.0
  0
LINE
  5
87
100
AcDbEntity
  8
VHH-025
100
AcDbLine
 10
1048.925062
 20
538.2
 30
0.0
 11
1048.958106
 21
545.75
 31
0.0
  0
LINE
  5
88
100
AcDbEntity
  8
VHH-025
100
AcDbLine
 10
1044.575954
 20
538.2
 30
0.0
 11
1044.673011
 21
545.75
 31
0.0
  0
LINE
  5
89
100
AcDbEntity
  8
VHH-025
100
AcDbLine
 10
1042.765824
 20
538.2
 30
0.0
 11
1043.254701
 21
546.3
 31
0.0
  0
LINE
  5
8A
100
AcDbEntity
  8
VHH-025
100
AcDbLine
 10
1042.765824
 20
538.2
 30
0.0
 11
1042.892839
 21
545.75
 31
0.0
  0
LINE
  5
8B
100
AcDbEntity
  8
VHH-025
100
AcDbLine
 10
1058.114649
 20
538.2
 30
0.0
 11
1057.987634
 21
545.75
 31
0.0
  0
LINE
  5
8C
100
AcDbEntity
  8
VHH-025
100
AcDbLine
 10
1056.304519
 20
538.2
 30
0.0
 11
1056.207462
 21
545.75
 31
0.0
  0
LINE
  5
8D
100
AcDbEntity
  8
VHH-025
100
AcDbLine
 10
1058.114649
 20
538.2
 30
0.0
 11
1057.625772
 21
546.3
 31
0.0
  0
LINE
  5
8E
100
AcDbEntity
  8
VHH-025
100
AcDbLine
 10
1061.34518
 20
538.2
 30
0.0
 11
1061.164698
 21
545.75
 31
0.0
  0
LINE
  5
8F
100
AcDbEntity
  8
VHH-025
100
AcDbLine
 10
1059.803749
 20
538.2
 30
0.0
 11
1059.648778
 21
545.75
 31
0.0
  0
LINE
  5
90
100
AcDbEntity
  8
VHH-025
100
AcDbLine
 10
1061.34518
 20
538.2
 30
0.0
 11
1060.650512
 21
546.3
 31
0.0
  0
LINE
  5
91
100
AcDbEntity
  8
VHH-025
100
AcDbLine
 10
1062.714635
 20
538.2
 30
0.0
 11
1062.511487
 21
545.75
 31
0.0
  0
LINE
  5
92
100
AcDbEntity
  8
VHH-025
100
AcDbLine
 10
1063.890514
 20
538.2
 30
0.0
 11
1063.667906
 21
545.75
 31
0.0
  0
LINE
  5
93
100
AcDbEntity
  8
VHH-025
100
AcDbLine
 10
1063.890514
 20
538.2
 30
0.0
 11
1063.033702
 21
546.3
 31
0.0
  0
LINE
  5
94
100
AcDbEntity
  8
VHH-025
100
AcDbLine
 10
1064.854275
 20
538.2
 30
0.0
 11
1064.615716
 21
545.75
 31
0.0
  0
LINE
  5
95
100
AcDbEntity
  8
VHH-035
100
AcDbLine
 10
1042.440237
 20
491.0
 30
0.0
 11
1042.440237
 21
493.0
 31
0.0
  0
LINE
  5
96
100
AcDbEntity
  8
VHH-035
100
AcDbLine
 10
1058.440237
 20
491.0
 30
0.0
 11
1058.440237
 21
493.0
 31
0.0
  0
ARC
  5
97
100
AcDbEntity
  8
VHH-035
100
AcDbCircle
 10
1057.440237
 20
491.0
 30
0.0
 40
1.0
100
AcDbArc
 50
270.0
 51
0.0
  0
ARC
  5
98
100
AcDbEntity
  8
VHH-035
100
AcDbCircle
 10
1043.440237
 20
491.0
 30
0.0
 40
1.0
100
AcDbArc
 50
180.0
 51
270.0
  0
LINE
  5
99
100
AcDbEntity
  8
VHH-035
100
AcDbLine
 10
1043.440237
 20
490.0
 30
0.0
 11
1057.440237
 21
490.0
 31
0.0
  0
LINE
  5
9A
100
AcDbEntity
  8
VHH-035
100
AcDbLine
 10
1110.137834
 20
514.0
 30
0.0
 11
1056.240237
 21
514.0
 31
0.0
  0
ARC
  5
9B
100
AcDbEntity
  8
VHH-035
100
AcDbCircle
 10
1046.724323
 20
554.19737
 30
0.0
 40
26.830235
100
AcDbArc
 50
290.773298
 51
317.293646
  0
ARC
  5
9C
100
AcDbEntity
  8
VHH-035
100
AcDbCircle
 10
1065.24159
 20
511.0
 30
0.0
 40
1.0
100
AcDbArc
 50
270.0
 51
350.0
  0
LINE
  5
9D
100
AcDbEntity
  8
VHH-025
100
AcDbLine
 10
1064.854275
 20
538.2
 30
0.0
 11
1065.590718
 21
538.2
 31
0.0
  0
LINE
  5
9E
100
AcDbEntity
  8
VHH-035
100
AcDbLine
 10
1066.226398
 20
510.826352
 30
0.0
 11
1066.785998
 21
514.0
 31
0.0
  0
LINE
  5
9F
100
AcDbEntity
  8
VHH-025
100
AcDbLine
 10
1066.088228
 20
538.2
 30
0.0
 11
1066.370395
 21
538.2
 31
0.0
  0
LINE
  5
A0
100
AcDbEntity
  8
VHH-035
100
AcDbLine
 10
1066.442674
 20
535.930201
 30
0.0
 11
1066.440237
 21
536.0
 31
0.0
  0
LINE
  5
A1
100
AcDbEntity
  8
VHH-035
100
AcDbLine
 10
1058.440237
 20
496.0
 30
0.0
 11
1058.440237
 21
508.0
 31
0.0
  0
ARC
  5
A2
100
AcDbEntity
  8
VHH-035
100
AcDbCircle
 10
1060.440237
 20
494.5
 30
0.0
 40
2.5
100
AcDbArc
 50
143.130102
 51
216.869898
  0
LINE
  5
A3
100
AcDbEntity
  8
VHH-035
100
AcDbLine
 10
1056.240237
 20
514.0
 30
0.0
 11
1056.240237
 21
529.11134
 31
0.0
  0
LINE
  5
A4
100
AcDbEntity
  8
VHH-035
100
AcDbLine
 10
1060.585945
 20
510.826352
 30
0.0
 11
1061.145544
 21
514.0
 31
0.0
  0
ARC
  5
A5
100
AcDbEntity
  8
VHH-035
100
AcDbCircle
 10
1059.601137
 20
511.0
 30
0.0
 40
1.0
100
AcDbArc
 50
270.0
 51
350.0
  0
ARC
  5
A6
100
AcDbEntity
  8
VHH-035
100
AcDbCircle
 10
1060.440237
 20
508.0
 30
0.0
 40
2.0
100
AcDbArc
 50
90.0
 51
180.0
  0
LINE
  5
A7
100
AcDbEntity
  8
VHH-025
100
AcDbLine
 10
1062.714635
 20
538.2
 30
0.0
 11
1063.890514
 21
538.2
 31
0.0
  0
LINE
  5
A8
100
AcDbEntity
  8
VHH-025
100
AcDbLine
 10
1059.803749
 20
538.2
 30
0.0
 11
1061.34518
 21
538.2
 31
0.0
  0
LINE
  5
A9
100
AcDbEntity
  8
VHH-025
100
AcDbLine
 10
1056.304519
 20
538.2
 30
0.0
 11
1058.114649
 21
538.2
 31
0.0
  0
LINE
  5
AA
100
AcDbEntity
  8
VHH-035
100
AcDbLine
 10
1042.440237
 20
496.0
 30
0.0
 11
1042.440237
 21
508.0
 31
0.0
  0
ARC
  5
AB
100
AcDbEntity
  8
VHH-035
100
AcDbCircle
 10
1040.440237
 20
494.5
 30
0.0
 40
2.5
100
AcDbArc
 50
323.130102
 51
36.869898
  0
LINE
  5
AC
100
AcDbEntity
  8
VHH-025
100
AcDbLine
 10
1051.955411
 20
538.2
 30
0.0
 11
1053.920502
 21
538.2
 31
0.0
  0
LINE
  5
AD
100
AcDbEntity
  8
VHH-025
100
AcDbLine
 10
1048.925062
 20
538.2
 30
0.0
 11
1046.959971
 21
538.2
 31
0.0
  0
LINE
  5
AE
100
AcDbEntity
  8
VHH-025
100
AcDbLine
 10
1044.575954
 20
538.2
 30
0.0
 11
1042.765824
 21
538.2
 31
0.0
  0
LINE
  5
AF
100
AcDbEntity
  8
VHH-035
100
AcDbLine
 10
1042.440237
 20
496.0
 30
0.0
 11
1058.440237
 21
496.0
 31
0.0
  0
LINE
  5
B0
100
AcDbEntity
  8
VHH-035
100
AcDbLine
 10
1042.440237
 20
493.0
 30
0.0
 11
1058.440237
 21
493.0
 31
0.0
  0
LINE
  5
B1
100
AcDbEntity
  8
035-DWG
100
AcDbLine
 10
1114.604421
 20
514.457484
 30
0.0
 11
1113.709578
 21
514.457484
 31
0.0
  0
LWPOLYLINE
  5
B2
100
AcDbEntity
  8
025-DWG
100
AcDbPolyline
 90
        3
 70
     0
 43
0.0
 10
1110.040814
 20
511.647552
 10
1108.045688
 20
511.575682
 10
1106.040237
 20
511.503812
  0
LWPOLYLINE
  5
B3
100
AcDbEntity
  8
035-DWG
100
AcDbPolyline
 90
        3
 70
     0
 43
0.0
 10
1106.040237
 20
512.429874
 10
1108.049122
 20
512.520671
 10
1110.047891
 20
512.611342
  0
LINE
  5
B4
100
AcDbEntity
  8
035-DWG
100
AcDbLine
 10
1106.040237
 20
511.0
 30
0.0
 11
1110.040237
 21
510.860317
 31
0.0
  0
LWPOLYLINE
  5
B5
100
AcDbEntity
  8
035-DWG
100
AcDbPolyline
 90
       41
 70
     0
 43
0.0
 10
1110.040237
 20
512.5
 10
1110.040493
 20
512.503679
 10
1110.041262
 20
512.514782
 10
1110.042549
 20
512.533405
 10
1110.044356
 20
512.559644
 10
1110.046685
 20
512.593597
 10
1110.049539
 20
512.635361
 10
1110.052922
 20
512.685031
 10
1110.056837
 20
512.742705
 10
1110.061282
 20
512.80845
 10
1110.066244
 20
512.882223
 10
1110.071707
 20
512.963962
 10
1110.077655
 20
513.0536
 10
1110.084073
 20
513.151074
 10
1110.090945
 20
513.256319
 10
1110.098254
 20
513.369271
 10
1110.105985
 20
513.489865
 10
1110.11412
 20
513.618038
 10
1110.122632
 20
513.753636
 10
1110.131491
 20
513.89646
 10
1110.14067
 20
514.046306
 10
1110.15014
 20
514.202975
 10
1110.159871
 20
514.366264
 10
1110.169835
 20
514.535973
 10
1110.180004
 20
514.711901
 10
1110.190345
 20
514.893826
 10
1110.200823
 20
515.081437
 10
1110.211406
 20
515.274396
 10
1110.222062
 20
515.472366
 10
1110.232756
 20
515.67501
 10
1110.243457
 20
515.88199
 10
1110.254131
 20
516.09297
 10
1110.264746
 20
516.307612
 10
1110.274119
 20
516.501422
 10
1110.283542
 20
516.700568
 10
1110.292992
 20
516.904915
 10
1110.302447
 20
517.114329
 10
1110.311884
 20
517.328679
 10
1110.321281
 20
517.547829
 10
1110.330615
 20
517.771647
 10
1110.339864
 20
518.0
  0
LINE
  5
B6
100
AcDbEntity
  8
035-DWG
100
AcDbLine
 10
1110.040814
 20
511.647552
 30
0.0
 11
1110.040814
 21
510.867728
 31
0.0
  0
LWPOLYLINE
  5
B7
100
AcDbEntity
  8
035-DWG
100
AcDbPolyline
 90
        3
 70
     0
 43
0.0
 10
1110.040815
 20
510.867727
 10
1110.04052
 20
510.863952
 10
1110.040237
 20
510.860317
  0
LINE
  5
B8
100
AcDbEntity
  8
035-DWG
100
AcDbLine
 10
1110.040237
 20
512.5
 30
0.0
 11
1110.040237
 21
511.647531
 31
0.0
  0
LINE
  5
B9
100
AcDbEntity
  8
035-DWG
100
AcDbLine
 10
1110.339864
 20
518.0
 30
0.0
 11
1111.019397
 21
518.0
 31
0.0
  0
LINE
  5
BA
100
AcDbEntity
  8
035-DWG
100
AcDbLine
 10
1111.019397
 20
518.0
 30
0.0
 11
1111.455862
 21
518.0
 31
0.0
  0
LINE
  5
BB
100
AcDbEntity
  8
035-DWG
100
AcDbLine
 10
1113.709578
 20
518.0
 30
0.0
 11
1111.455862
 21
518.0
 31
0.0
  0
LINE
  5
BC
100
AcDbEntity
  8
035-DWG
100
AcDbLine
 10
1106.040237
 20
511.503812
 30
0.0
 11
1106.040237
 21
512.429874
 31
0.0
  0
LINE
  5
BD
100
AcDbEntity
  8
035-DWG
100
AcDbLine
 10
1106.040237
 20
511.003681
 30
0.0
 11
1106.040237
 21
511.503812
 31
0.0
  0
LINE
  5
BE
100
AcDbEntity
  8
035-DWG
100
AcDbLine
 10
1106.040237
 20
511.003681
 30
0.0
 11
1106.040237
 21
511.0
 31
0.0
  0
LINE
  5
BF
100
AcDbEntity
  8
035-DWG
100
AcDbLine
 10
1140.632277
 20
482.6
 30
0.0
 11
1140.632277
 21
448.6
 31
0.0
  0
LINE
  5
C0
100
AcDbEntity
  8
035-DWG
100
AcDbLine
 10
1130.025675
 20
482.6
 30
0.0
 11
1130.025675
 21
448.6
 31
0.0
  0
LINE
  5
C1
100
AcDbEntity
  8
025-DWG
100
AcDbLine
 10
1132.638207
 20
478.1
 30
0.0
 11
1132.638207
 21
453.1
 31
0.0
  0
LINE
  5
C2
100
AcDbEntity
  8
035-DWG
100
AcDbLine
 10
1130.025675
 20
482.6
 30
0.0
 11
1140.632277
 21
482.6
 31
0.0
  0
LINE
  5
C3
100
AcDbEntity
  8
025-DWG
100
AcDbLine
 10
1132.638207
 20
478.1
 30
0.0
 11
1138.295062
 21
478.1
 31
0.0
  0
LINE
  5
C4
100
AcDbEntity
  8
035-DWG
100
AcDbLine
 10
1130.025675
 20
448.6
 30
0.0
 11
1140.632277
 21
448.6
 31
0.0
  0
LINE
  5
C5
100
AcDbEntity
  8
025-DWG
100
AcDbLine
 10
1132.638207
 20
453.1
 30
0.0
 11
1138.295062
 21
453.1
 31
0.0
  0
ARC
  5
C6
100
AcDbEntity
  8
VHH-025
100
AcDbCircle
 10
1064.542049
 20
545.702213
 30
0.0
 40
0.799351
100
AcDbArc
 50
3.427341
 51
86.416
  0
ARC
  5
C7
100
AcDbEntity
  8
VHH-025
100
AcDbCircle
 10
1064.996773
 20
545.666262
 30
0.0
 40
0.836674
100
AcDbArc
 50
5.744042
 51
85.198625
  0
ARC
  5
C8
100
AcDbEntity
  8
VHH-025
100
AcDbCircle
 10
1065.308395
 20
545.732393
 30
0.0
 40
0.767636
100
AcDbArc
 50
1.31429
 51
90.497563
  0
ARC
  5
C9
100
AcDbEntity
  8
VHH-035
100
AcDbCircle
 10
1065.356286
 20
545.75
 30
0.0
 40
0.75
100
AcDbArc
 50
2.0
 51
90.0
  0
ARC
  5
CA
100
AcDbEntity
  8
VHH-025
100
AcDbCircle
 10
1062.908027
 20
545.74734
 30
0.0
 40
0.759883
100
AcDbArc
 50
0.200603
 51
82.094132
  0
LINE
  5
CB
100
AcDbEntity
  8
VHH-035
100
AcDbLine
 10
1059.940237
 20
559.5
 30
0.0
 11
1059.940237
 21
556.5
 31
0.0
  0
LINE
  5
CC
100
AcDbEntity
  8
VHH-035
100
AcDbLine
 10
1059.940237
 20
556.5
 30
0.0
 11
1059.940237
 21
559.5
 31
0.0
  0
LINE
  5
CD
100
AcDbEntity
  8
VHH-035
100
AcDbLine
 10
1059.940237
 20
559.5
 30
0.0
 11
1059.940237
 21
556.5
 31
0.0
  0
LINE
  5
CE
100
AcDbEntity
  8
VHH-035
100
AcDbLine
 10
1059.940237
 20
559.5
 30
0.0
 11
1059.940237
 21
548.5
 31
0.0
  0
ARC
  5
CF
100
AcDbEntity
  8
VHH-025
100
AcDbCircle
 10
1060.3873
 20
545.762464
 30
0.0
 40
0.777499
100
AcDbArc
 50
359.081425
 51
71.550057
  0
ARC
  5
D0
100
AcDbEntity
  8
VHH-025
100
AcDbCircle
 10
1061.688684
 20
545.707334
 30
0.0
 40
0.823909
100
AcDbArc
 50
2.968346
 51
74.170782
  0
ARC
  5
D1
100
AcDbEntity
  8
VHH-025
100
AcDbCircle
 10
1060.47107
 20
546.321112
 30
0.0
 40
0.180679
100
AcDbArc
 50
353.289662
 51
81.925084
  0
ARC
  5
D2
100
AcDbEntity
  8
VHH-025
100
AcDbCircle
 10
1062.791207
 20
546.259874
 30
0.0
 40
0.245793
100
AcDbArc
 50
9.395686
 51
77.673169
  0
ARC
  5
D3
100
AcDbEntity
  8
VHH-025
100
AcDbCircle
 10
1056.993522
 20
545.722576
 30
0.0
 40
0.99449
100
AcDbArc
 50
1.580191
 51
51.419375
  0
ARC
  5
D4
100
AcDbEntity
  8
VHH-025
100
AcDbCircle
 10
1055.26552
 20
545.820569
 30
0.0
 40
0.944582
100
AcDbArc
 50
355.715503
 51
45.996151
  0
ARC
  5
D5
100
AcDbEntity
  8
VHH-025
100
AcDbCircle
 10
1057.288734
 20
546.246677
 30
0.0
 40
0.34123
100
AcDbArc
 50
8.9903
 51
47.934725
  0
ARC
  5
D6
100
AcDbEntity
  8
VHH-025
100
AcDbCircle
 10
1058.844778
 20
545.774683
 30
0.0
 40
0.804379
100
AcDbArc
 50
358.241524
 51
64.383709
  0
ARC
  5
D7
100
AcDbEntity
  8
VHH-035
100
AcDbCircle
 10
1057.940237
 20
548.5
 30
0.0
 40
2.0
100
AcDbArc
 50
270.0
 51
360.0
  0
ARC
  5
D8
100
AcDbEntity
  8
VHH-025
100
AcDbCircle
 10
1063.765098
 20
545.657295
 30
0.0
 40
0.855654
100
AcDbArc
 50
6.219848
 51
80.019292
  0
ARC
  5
D9
100
AcDbEntity
  8
VHH-025
100
AcDbCircle
 10
1064.402904
 20
546.286574
 30
0.0
 40
0.213601
100
AcDbArc
 50
3.603663
 51
87.678191
  0
ARC
  5
DA
100
AcDbEntity
  8
VHH-035
100
AcDbCircle
 10
1047.726653
 20
559.897745
 30
0.0
 40
6.0
100
AcDbArc
 50
276.0
 51
45.502135
  0
LINE
  5
DB
100
AcDbEntity
  8
VHH-035
100
AcDbLine
 10
1044.074387
 20
553.480827
 30
0.0
 11
1048.353824
 21
553.930614
 31
0.0
  0
ARC
  5
DC
100
AcDbEntity
  8
VHH-035
100
AcDbCircle
 10
1014.25364
 20
525.832821
 30
0.0
 40
50.670673
100
AcDbArc
 50
43.450691
 51
53.824524
  0
ARC
  5
DD
100
AcDbEntity
  8
VHH-025
100
AcDbCircle
 10
1045.614953
 20
545.820569
 30
0.0
 40
0.944582
100
AcDbArc
 50
134.003849
 51
184.284497
  0
ARC
  5
DE
100
AcDbEntity
  8
VHH-035
100
AcDbCircle
 10
1048.134985
 20
557.929646
 30
0.0
 40
4.0
100
AcDbArc
 50
276.0
 51
43.450691
  0
ARC
  5
DF
100
AcDbEntity
  8
VHH-025
100
AcDbCircle
 10
1052.500651
 20
545.801283
 30
0.0
 40
1.355254
100
AcDbArc
 50
357.831411
 51
31.035013
  0
ARC
  5
E0
100
AcDbEntity
  8
VHH-025
100
AcDbCircle
 10
1050.036706
 20
545.88672
 30
0.0
 40
1.890611
100
AcDbArc
 50
355.853014
 51
18.928126
  0
ARC
  5
E1
100
AcDbEntity
  8
VHH-025
100
AcDbCircle
 10
1050.843767
 20
545.88672
 30
0.0
 40
1.890611
100
AcDbArc
 50
161.071874
 51
184.146986
  0
ARC
  5
E2
100
AcDbEntity
  8
VHH-025
100
AcDbCircle
 10
1048.379822
 20
545.801283
 30
0.0
 40
1.355254
100
AcDbArc
 50
148.964987
 51
182.168589
  0
ARC
  5
E3
100
AcDbEntity
  8
VHH-025
100
AcDbCircle
 10
1047.633495
 20
546.289972
 30
0.0
 40
0.421276
100
AcDbArc
 50
150.095791
 51
178.636048
  0
ARC
  5
E4
100
AcDbEntity
  8
VHH-025
100
AcDbCircle
 10
1053.246979
 20
546.289972
 30
0.0
 40
0.421276
100
AcDbArc
 50
1.363952
 51
29.904209
  0
ARC
  5
E5
100
AcDbEntity
  8
VHH-025
100
AcDbCircle
 10
1043.591739
 20
546.246677
 30
0.0
 40
0.34123
100
AcDbArc
 50
132.065275
 51
171.0097
  0
ARC
  5
E6
100
AcDbEntity
  8
VHH-025
100
AcDbCircle
 10
1043.886951
 20
545.722576
 30
0.0
 40
0.99449
100
AcDbArc
 50
128.580625
 51
178.419809
  0
ARC
  5
E7
100
AcDbEntity
  8
VHH-035
100
AcDbCircle
 10
1039.003896
 20
565.698272
 30
0.0
 40
5.0
100
AcDbArc
 50
322.675716
 51
14.722142
  0
ARC
  5
E8
100
AcDbEntity
  8
VHH-035
100
AcDbCircle
 10
1037.282542
 20
548.934543
 30
0.0
 40
25.0
100
AcDbArc
 50
25.0
 51
54.192291
  0
LINE
  5
E9
100
AcDbEntity
  8
VHH-035
100
AcDbLine
 10
1057.940237
 20
546.5
 30
0.0
 11
1044.440237
 21
546.5
 31
0.0
  0
LINE
  5
EA
100
AcDbEntity
  8
VHH-035
100
AcDbLine
 10
1104.470107
 20
540.160356
 30
0.0
 11
1114.604421
 21
542.026281
 31
0.0
  0
ARC
  5
EB
100
AcDbEntity
  8
VHH-035
100
AcDbCircle
 10
1113.296048
 20
561.15387
 30
0.0
 40
22.773337
100
AcDbArc
 50
227.135963
 51
247.197494
  0
ARC
  5
EC
100
AcDbEntity
  8
VHH-035
100
AcDbCircle
 10
1094.717021
 20
553.168034
 30
0.0
 40
9.23749
100
AcDbArc
 50
267.041417
 51
289.524204
  0
LINE
  5
ED
100
AcDbEntity
  8
035-DWG
100
AcDbLine
 10
1320.840237
 20
776.069091
 30
0.0
 11
1111.240237
 21
776.069091
 31
0.0
  0
LINE
  5
EE
100
AcDbEntity
  8
035-DWG
100
AcDbLine
 10
1117.740237
 20
791.069091
 30
0.0
 11
1216.040237
 21
791.069091
 31
0.0
  0
LINE
  5
EF
100
AcDbEntity
  8
035-DWG
100
AcDbLine
 10
1216.040237
 20
789.569091
 30
0.0
 11
1114.740237
 21
789.569091
 31
0.0
  0
LINE
  5
F0
100
AcDbEntity
  8
025-DWG
100
AcDbLine
 10
1111.240237
 20
786.069091
 30
0.0
 11
1216.040237
 21
786.069091
 31
0.0
  0
LINE
  5
F1
100
AcDbEntity
  8
035-DWG
100
AcDbLine
 10
1206.445552
 20
759.311206
 30
0.0
 11
1090.914447
 21
679.7374
 31
0.0
  0
LINE
  5
F2
100
AcDbEntity
  8
035-DWG
100
AcDbLine
 10
1203.042135
 20
764.252538
 30
0.0
 11
1087.51103
 21
684.678731
 31
0.0
  0
ARC
  5
F3
100
AcDbEntity
  8
035-DWG
100
AcDbCircle
 10
1089.212739
 20
682.208065
 30
0.0
 40
3.0
100
AcDbArc
 50
124.557719
 51
304.557719
  0
ARC
  5
F4
100
AcDbEntity
  8
035-DWG
100
AcDbCircle
 10
1114.740237
 20
786.069091
 30
0.0
 40
3.5
100
AcDbArc
 50
90.0
 51
180.0
  0
LINE
  5
F5
100
AcDbEntity
  8
035-DWG
100
AcDbLine
 10
1111.240237
 20
786.069091
 30
0.0
 11
1111.240237
 21
776.069091
 31
0.0
  0
ARC
  5
F6
100
AcDbEntity
  8
035-DWG
100
AcDbCircle
 10
1117.740237
 20
793.069091
 30
0.0
 40
2.0
100
AcDbArc
 50
180.0
 51
270.0
  0
POINT
  5
F7
100
AcDbEntity
  8
DEFPOINTS
  6
BYBLOCK
 62
     0
100
AcDbPoint
 10
1114.740237
 20
789.569091
 30
0.0
  0
ARC
  5
F9
100
AcDbEntity
  8
035-DWG
100
AcDbCircle
 10
1122.190237
 20
792.369091
 30
0.0
 40
2.8
100
AcDbArc
 50
207.664004
 51
332.335996
  0
LINE
  5
FA
100
AcDbEntity
  8
025-DWG
100
AcDbLine
 10
1320.840237
 20
786.069091
 30
0.0
 11
1216.040237
 21
786.069091
 31
0.0
  0
LINE
  5
FB
100
AcDbEntity
  8
035-DWG
100
AcDbLine
 10
1216.040237
 20
789.569091
 30
0.0
 11
1317.340237
 21
789.569091
 31
0.0
  0
LINE
  5
FC
100
AcDbEntity
  8
035-DWG
100
AcDbLine
 10
1314.340237
 20
791.069091
 30
0.0
 11
1216.040237
 21
791.069091
 31
0.0
  0
POLYLINE
  5
FD
100
AcDbEntity
  8
035-DWG
100
AcDb2dPolyline
 66
     1
 10
0.0
 20
0.0
 30
0.0
 70
     2
  0
VERTEX
  5
FE
100
AcDbEntity
  8
035-DWG
100
AcDbVertex
100
AcDb2dVertex
 10
1223.423174
 20
768.394169
 30
0.0
 42
0.028161
  0
VERTEX
  5
FF
100
AcDbEntity
  8
035-DWG
100
AcDbVertex
100
AcDb2dVertex
 10
1222.331216
 20
770.748823
 30
0.0
 42
0.028161
 70
     1
  0
VERTEX
  5
100
100
AcDbEntity
  8
035-DWG
100
AcDbVertex
100
AcDb2dVertex
 10
1220.981568
 20
772.965851
 30
0.0
 42
0.028161
  0
VERTEX
  5
101
100
AcDbEntity
  8
035-DWG
100
AcDbVertex
100
AcDb2dVertex
 10
1219.391328
 20
775.017169
 30
0.0
 42
0.028161
 70
     1
  0
VERTEX
  5
102
100
AcDbEntity
  8
035-DWG
100
AcDbVertex
100
AcDb2dVertex
 10
1217.580641
 20
776.876788
 30
0.0
  0
SEQEND
  5
103
100
AcDbEntity
  8
035-DWG
  0
LINE
  5
104
100
AcDbEntity
  8
035-DWG
100
AcDbLine
 10
1217.580641
 20
776.876788
 30
0.0
 11
1206.081511
 21
768.956586
 31
0.0
  0
CIRCLE
  5
105
100
AcDbEntity
  8
035-DWG
100
AcDbCircle
 10
1216.040237
 20
769.562434
 30
0.0
 40
2.6
  0
LWPOLYLINE
  5
106
100
AcDbEntity
  8
025-DWG
100
AcDbPolyline
 90
        3
 70
     0
 43
0.0
 10
1211.924043
 20
760.473968
 42
-0.068936
 10
1209.627747
 20
761.896692
 42
-0.01937
 10
1209.060196
 20
762.405706
 42
-0.068936
  0
LINE
  5
107
100
AcDbEntity
  8
035-DWG
100
AcDbLine
 10
1208.758769
 20
760.254587
 30
0.0
 11
1207.855196
 21
759.985611
 31
0.0
  0
ARC
  5
108
100
AcDbEntity
  8
035-DWG
100
AcDbCircle
 10
1210.185306
 20
755.462406
 30
0.0
 40
5.0
100
AcDbArc
 50
90.377405
 51
106.577227
  0
LINE
  5
109
100
AcDbEntity
  8
035-DWG
100
AcDbLine
 10
1211.924043
 20
760.473968
 30
0.0
 11
1210.152371
 21
760.462298
 31
0.0
  0
LWPOLYLINE
  5
10A
100
AcDbEntity
  8
025-DWG
100
AcDbPolyline
 90
        3
 70
     0
 43
0.0
 10
1207.158108
 20
764.970866
 42
-0.036834
 10
1206.592165
 20
766.303974
 42
-0.068936
 10
1206.081511
 20
768.956586
  0
LINE
  5
10B
100
AcDbEntity
  8
035-DWG
100
AcDbLine
 10
1206.081511
 20
768.956586
 30
0.0
 11
1205.439031
 21
767.305473
 31
0.0
  0
LINE
  5
10C
100
AcDbEntity
  8
035-DWG
100
AcDbLine
 10
1204.748166
 20
766.077475
 30
0.0
 11
1204.17475
 21
765.329152
 31
0.0
  0
ARC
  5
10D
100
AcDbEntity
  8
035-DWG
100
AcDbCircle
 10
1200.77937
 20
769.118636
 30
0.0
 40
5.0
100
AcDbArc
 50
322.538212
 51
338.738033
  0
ARC
  5
10E
100
AcDbEntity
  8
035-DWG
100
AcDbCircle
 10
1209.281733
 20
755.193431
 30
0.0
 40
5.0
100
AcDbArc
 50
106.577227
 51
124.557719
  0
ARC
  5
10F
100
AcDbEntity
  8
035-DWG
100
AcDbCircle
 10
1200.205954
 20
768.370313
 30
0.0
 40
5.0
100
AcDbArc
 50
304.557719
 51
322.538212
  0
LINE
  5
110
100
AcDbEntity
  8
035-DWG
100
AcDbLine
 10
1223.423174
 20
768.394169
 30
0.0
 11
1211.924043
 21
760.473968
 31
0.0
  0
ARC
  5
111
100
AcDbEntity
  8
035-DWG
100
AcDbCircle
 10
1314.340237
 20
793.069091
 30
0.0
 40
2.0
100
AcDbArc
 50
270.0
 51
360.0
  0
ARC
  5
112
100
AcDbEntity
  8
035-DWG
100
AcDbCircle
 10
1309.890237
 20
792.369091
 30
0.0
 40
2.8
100
AcDbArc
 50
207.664004
 51
332.335996
  0
ARC
  5
113
100
AcDbEntity
  8
035-DWG
100
AcDbCircle
 10
1317.340237
 20
786.069091
 30
0.0
 40
3.5
100
AcDbArc
 50
0.0
 51
90.0
  0
POINT
  5
114
100
AcDbEntity
  8
DEFPOINTS
  6
BYBLOCK
 62
     0
100
AcDbPoint
 10
1317.340237
 20
789.569091
 30
0.0
  0
LINE
  5
115
100
AcDbEntity
  8
035-DWG
100
AcDbLine
 10
1320.840237
 20
786.069091
 30
0.0
 11
1320.840237
 21
776.069091
 31
0.0
  0
LINE
  5
116
100
AcDbEntity
  8
035-DWG
100
AcDbLine
 10
1189.451561
 20
917.363305
 30
0.0
 11
1207.040237
 21
917.363305
 31
0.0
  0
LINE
  5
117
100
AcDbEntity
  8
025-DWG
100
AcDbLine
 10
1191.9053
 20
913.113305
 30
0.0
 11
1207.040237
 21
913.113305
 31
0.0
  0
LINE
  5
118
100
AcDbEntity
  8
035-DWG
100
AcDbLine
 10
1189.783868
 20
909.363686
 30
0.0
 11
1207.040237
 21
909.363686
 31
0.0
  0
LINE
  5
119
100
AcDbEntity
  8
025-DWG
100
AcDbLine
 10
1115.740237
 20
874.970653
 30
0.0
 11
1216.040237
 21
874.970653
 31
0.0
  0
LINE
  5
11A
100
AcDbEntity
  8
025-DWG
100
AcDbLine
 10
1115.740237
 20
879.970653
 30
0.0
 11
1216.040237
 21
879.970653
 31
0.0
  0
LINE
  5
11B
100
AcDbEntity
  8
025-DWG
100
AcDbLine
 10
1106.390237
 20
898.469091
 30
0.0
 11
1216.040237
 21
898.469091
 31
0.0
  0
LINE
  5
11C
100
AcDbEntity
  8
035-DWG
100
AcDbLine
 10
1106.390237
 20
893.469091
 30
0.0
 11
1216.040237
 21
893.469091
 31
0.0
  0
LINE
  5
11D
100
AcDbEntity
  8
035-DWG
100
AcDbLine
 10
1108.190237
 20
900.269091
 30
0.0
 11
1216.040237
 21
900.269091
 31
0.0
  0
ARC
  5
11E
100
AcDbEntity
  8
035-DWG
100
AcDbCircle
 10
1189.740237
 20
911.863305
 30
0.0
 40
2.5
100
AcDbArc
 50
271.0
 51
30.0
  0
ARC
  5
11F
100
AcDbEntity
  8
035-DWG
100
AcDbCircle
 10
1115.740237
 20
877.470653
 30
0.0
 40
2.5
100
AcDbArc
 50
270.0
 51
90.0
  0
ARC
  5
120
100
AcDbEntity
  8
035-DWG
100
AcDbCircle
 10
1108.190237
 20
898.469091
 30
0.0
 40
1.8
100
AcDbArc
 50
90.0
 51
180.0
  0
LINE
  5
121
100
AcDbEntity
  8
035-DWG
100
AcDbLine
 10
1106.390237
 20
893.469091
 30
0.0
 11
1106.390237
 21
898.469091
 31
0.0
  0
LINE
  5
122
100
AcDbEntity
  8
035-DWG
100
AcDbLine
 10
1115.740237
 20
879.970653
 30
0.0
 11
1115.740237
 21
893.469091
 31
0.0
  0
LINE
  5
123
100
AcDbEntity
  8
035-DWG
100
AcDbLine
 10
1141.577132
 20
907.859034
 30
0.0
 11
1189.783868
 21
909.363686
 31
0.0
  0
LINE
  5
124
100
AcDbEntity
  8
035-DWG
100
AcDbLine
 10
1133.98719
 20
900.269091
 30
0.0
 11
1141.577132
 21
907.859034
 31
0.0
  0
LINE
  5
125
100
AcDbEntity
  8
035-DWG
100
AcDbLine
 10
1139.297785
 20
905.579686
 30
0.0
 11
1133.98719
 21
900.269091
 31
0.0
  0
LINE
  5
126
100
AcDbEntity
  8
035-DWG
100
AcDbLine
 10
1191.9053
 20
913.113305
 30
0.0
 11
1189.451561
 21
917.363305
 31
0.0
  0
ARC
  5
127
100
AcDbEntity
  8
035-DWG
100
AcDbCircle
 10
1242.340237
 20
911.863305
 30
0.0
 40
2.5
100
AcDbArc
 50
150.0
 51
269.0
  0
LINE
  5
128
100
AcDbEntity
  8
035-DWG
100
AcDbLine
 10
1207.040237
 20
900.269091
 30
0.0
 11
1207.040237
 21
928.745635
 31
0.0
  0
LINE
  5
129
100
AcDbEntity
  8
035-DWG
100
AcDbLine
 10
1225.040237
 20
900.269091
 30
0.0
 11
1225.040237
 21
928.745635
 31
0.0
  0
LINE
  5
12A
100
AcDbEntity
  8
025-DWG
100
AcDbLine
 10
1316.340237
 20
879.970653
 30
0.0
 11
1216.040237
 21
879.970653
 31
0.0
  0
LINE
  5
12B
100
AcDbEntity
  8
025-DWG
100
AcDbLine
 10
1316.340237
 20
874.970653
 30
0.0
 11
1216.040237
 21
874.970653
 31
0.0
  0
LINE
  5
12C
100
AcDbEntity
  8
025-DWG
100
AcDbLine
 10
1325.690237
 20
898.469091
 30
0.0
 11
1216.040237
 21
898.469091
 31
0.0
  0
LINE
  5
12D
100
AcDbEntity
  8
035-DWG
100
AcDbLine
 10
1325.690237
 20
893.469091
 30
0.0
 11
1216.040237
 21
893.469091
 31
0.0
  0
LINE
  5
12E
100
AcDbEntity
  8
035-DWG
100
AcDbLine
 10
1323.890237
 20
900.269091
 30
0.0
 11
1216.040237
 21
900.269091
 31
0.0
  0
LINE
  5
12F
100
AcDbEntity
  8
035-DWG
100
AcDbLine
 10
1290.503341
 20
907.859034
 30
0.0
 11
1242.296606
 21
909.363686
 31
0.0
  0
LINE
  5
130
100
AcDbEntity
  8
035-DWG
100
AcDbLine
 10
1242.296606
 20
909.363686
 30
0.0
 11
1225.040237
 21
909.363686
 31
0.0
  0
ARC
  5
131
100
AcDbEntity
  8
035-DWG
100
AcDbCircle
 10
1316.340237
 20
877.470653
 30
0.0
 40
2.5
100
AcDbArc
 50
90.0
 51
270.0
  0
LINE
  5
132
100
AcDbEntity
  8
035-DWG
100
AcDbLine
 10
1292.782688
 20
905.579686
 30
0.0
 11
1298.093283
 21
900.269091
 31
0.0
  0
LINE
  5
133
100
AcDbEntity
  8
035-DWG
100
AcDbLine
 10
1298.093283
 20
900.269091
 30
0.0
 11
1290.503341
 21
907.859034
 31
0.0
  0
ARC
  5
134
100
AcDbEntity
  8
035-DWG
100
AcDbCircle
 10
1323.890237
 20
898.469091
 30
0.0
 40
1.8
100
AcDbArc
 50
360.0
 51
90.0
  0
LINE
  5
135
100
AcDbEntity
  8
035-DWG
100
AcDbLine
 10
1325.690237
 20
893.469091
 30
0.0
 11
1325.690237
 21
898.469091
 31
0.0
  0
LINE
  5
136
100
AcDbEntity
  8
035-DWG
100
AcDbLine
 10
1316.340237
 20
879.970653
 30
0.0
 11
1316.340237
 21
893.469091
 31
0.0
  0
LINE
  5
137
100
AcDbEntity
  8
025-DWG
100
AcDbLine
 10
1240.175173
 20
913.113305
 30
0.0
 11
1225.040237
 21
913.113305
 31
0.0
  0
LINE
  5
138
100
AcDbEntity
  8
035-DWG
100
AcDbLine
 10
1242.628912
 20
917.363305
 30
0.0
 11
1225.040237
 21
917.363305
 31
0.0
  0
ARC
  5
139
100
AcDbEntity
  8
035-DWG
100
AcDbCircle
 10
1221.040237
 20
928.745635
 30
0.0
 40
4.0
100
AcDbArc
 50
0.0
 51
90.0
  0
ARC
  5
13A
100
AcDbEntity
  8
035-DWG
100
AcDbCircle
 10
1211.040237
 20
928.745635
 30
0.0
 40
4.0
100
AcDbArc
 50
90.0
 51
180.0
  0
LINE
  5
13B
100
AcDbEntity
  8
035-DWG
100
AcDbLine
 10
1211.040237
 20
932.745635
 30
0.0
 11
1221.040237
 21
932.745635
 31
0.0
  0
LINE
  5
13C
100
AcDbEntity
  8
035-DWG
100
AcDbLine
 10
1208.394485
 20
931.745635
 30
0.0
 11
1223.685988
 21
931.745635
 31
0.0
  0
LINE
  5
13D
100
AcDbEntity
  8
035-DWG
100
AcDbLine
 10
1240.175173
 20
913.113305
 30
0.0
 11
1242.628912
 21
917.363305
 31
0.0
  0
LINE
  5
13E
100
AcDbEntity
  8
035-DWG
100
AcDbLine
 10
1094.243903
 20
543.942668
 30
0.421745
 11
1094.243903
 21
647.578069
 31
0.421745
  0
LINE
  5
13F
100
AcDbEntity
  8
035-DWG
100
AcDbLine
 10
1101.764013
 20
541.516227
 30
0.421745
 11
1101.764013
 21
687.210203
 31
0.421745
  0
LINE
  5
140
100
AcDbEntity
  8
035-DWG
100
AcDbLine
 10
1114.548745
 20
557.829728
 30
0.421745
 11
1114.548745
 21
696.015882
 31
0.421745
  0
LINE
  5
141
100
AcDbEntity
  8
035-DWG
100
AcDbLine
 10
1094.243903
 20
689.316099
 30
0.421745
 11
1094.243903
 21
764.80352
 31
0.421745
  0
LINE
  5
142
100
AcDbEntity
  8
035-DWG
100
AcDbLine
 10
1101.764013
 20
694.495689
 30
0.421745
 11
1101.764013
 21
764.145596
 31
0.421745
  0
LINE
  5
143
100
AcDbEntity
  8
035-DWG
100
AcDbLine
 10
1114.548745
 20
703.301368
 30
0.421745
 11
1114.548745
 21
763.027076
 31
0.421745
  0
LINE
  5
144
100
AcDbEntity
  8
035-DWG
100
AcDbLine
 10
1094.243903
 20
647.578069
 30
0.421745
 11
1094.243903
 21
682.030613
 31
0.421745
  0
LINE
  5
145
100
AcDbEntity
  8
025-DWG
100
AcDbLine
 10
1104.130826
 20
773.353309
 30
0.421745
 11
1104.100789
 21
763.941154
 31
0.421745
  0
LINE
  5
146
100
AcDbEntity
  8
025-DWG
100
AcDbLine
 10
1103.13828
 20
773.353309
 30
0.421745
 11
1103.10852
 21
764.027966
 31
0.421745
  0
LINE
  5
147
100
AcDbEntity
  8
025-DWG
100
AcDbLine
 10
1101.436133
 20
774.126177
 30
0.421745
 11
1101.404383
 21
764.177059
 31
0.421745
  0
LINE
  5
148
100
AcDbEntity
  8
025-DWG
100
AcDbLine
 10
1102.073364
 20
764.118531
 30
0.421745
 11
1102.103706
 21
773.626348
 31
0.421745
  0
LINE
  5
149
100
AcDbEntity
  8
025-DWG
100
AcDbLine
 10
1102.148059
 20
773.319989
 30
0.421745
 11
1102.118682
 21
764.114566
 31
0.421745
  0
LINE
  5
14A
100
AcDbEntity
  8
025-DWG
100
AcDbLine
 10
1102.643966
 20
773.382978
 30
0.421745
 11
1102.61425
 21
764.071209
 31
0.421745
  0
LINE
  5
14B
100
AcDbEntity
  8
025-DWG
100
AcDbLine
 10
1103.636512
 20
773.382978
 30
0.421745
 11
1103.606519
 21
763.984397
 31
0.421745
  0
LINE
  5
14C
100
AcDbEntity
  8
025-DWG
100
AcDbLine
 10
1104.629059
 20
773.382978
 30
0.421745
 11
1104.598788
 21
763.897585
 31
0.421745
  0
LINE
  5
14D
100
AcDbEntity
  8
025-DWG
100
AcDbLine
 10
1100.0918
 20
774.126177
 30
0.421745
 11
1099.92359
 21
764.306612
 31
0.421745
  0
LINE
  5
14E
100
AcDbEntity
  8
025-DWG
100
AcDbLine
 10
1108.101011
 20
773.353309
 30
0.421745
 11
1108.069866
 21
763.593905
 31
0.421745
  0
LINE
  5
14F
100
AcDbEntity
  8
025-DWG
100
AcDbLine
 10
1109.093557
 20
773.353309
 30
0.421745
 11
1109.062135
 21
763.507093
 31
0.421745
  0
LINE
  5
150
100
AcDbEntity
  8
025-DWG
100
AcDbLine
 10
1110.086103
 20
773.353309
 30
0.421745
 11
1110.054404
 21
763.42028
 31
0.421745
  0
LINE
  5
151
100
AcDbEntity
  8
025-DWG
100
AcDbLine
 10
1111.078649
 20
773.353309
 30
0.421745
 11
1111.046673
 21
763.333468
 31
0.421745
  0
LINE
  5
152
100
AcDbEntity
  8
025-DWG
100
AcDbLine
 10
1112.071195
 20
773.353309
 30
0.421745
 11
1112.038942
 21
763.246656
 31
0.421745
  0
LINE
  5
153
100
AcDbEntity
  8
025-DWG
100
AcDbLine
 10
1111.576882
 20
773.382978
 30
0.421745
 11
1111.544672
 21
763.289899
 31
0.421745
  0
LINE
  5
154
100
AcDbEntity
  8
025-DWG
100
AcDbLine
 10
1110.584336
 20
773.382978
 30
0.421745
 11
1110.552403
 21
763.376711
 31
0.421745
  0
LINE
  5
155
100
AcDbEntity
  8
025-DWG
100
AcDbLine
 10
1109.591789
 20
773.382978
 30
0.421745
 11
1109.560134
 21
763.463523
 31
0.421745
  0
LINE
  5
156
100
AcDbEntity
  8
025-DWG
100
AcDbLine
 10
1108.599243
 20
773.382978
 30
0.421745
 11
1108.567865
 21
763.550336
 31
0.421745
  0
LINE
  5
157
100
AcDbEntity
  8
025-DWG
100
AcDbLine
 10
1107.606697
 20
773.382978
 30
0.421745
 11
1107.575596
 21
763.637148
 31
0.421745
  0
LINE
  5
158
100
AcDbEntity
  8
025-DWG
100
AcDbLine
 10
1107.108465
 20
773.353309
 30
0.421745
 11
1107.077597
 21
763.680717
 31
0.421745
  0
LINE
  5
159
100
AcDbEntity
  8
025-DWG
100
AcDbLine
 10
1106.115918
 20
773.353309
 30
0.421745
 11
1106.085328
 21
763.76753
 31
0.421745
  0
LINE
  5
15A
100
AcDbEntity
  8
025-DWG
100
AcDbLine
 10
1105.123372
 20
773.353309
 30
0.421745
 11
1105.093059
 21
763.854342
 31
0.421745
  0
LINE
  5
15B
100
AcDbEntity
  8
025-DWG
100
AcDbLine
 10
1105.621605
 20
773.382978
 30
0.421745
 11
1105.591057
 21
763.810773
 31
0.421745
  0
LINE
  5
15C
100
AcDbEntity
  8
025-DWG
100
AcDbLine
 10
1106.614151
 20
773.382978
 30
0.421745
 11
1106.583326
 21
763.72396
 31
0.421745
  0
LWPOLYLINE
  5
15D
100
AcDbEntity
  8
035-DWG
100
AcDbPolyline
 90
        3
 70
     0
 43
0.0
 38
0.421745
 10
1115.229555
 20
762.967513
 10
1115.197192
 20
768.528566
 10
1115.164918
 20
774.115966
  0
LINE
  5
15E
100
AcDbEntity
  8
025-DWG
100
AcDbLine
 10
1113.063742
 20
773.353309
 30
0.421745
 11
1113.031211
 21
763.159843
 31
0.421745
  0
LINE
  5
15F
100
AcDbEntity
  8
025-DWG
100
AcDbLine
 10
1114.056288
 20
773.353309
 30
0.421745
 11
1114.023481
 21
763.073031
 31
0.421745
  0
LINE
  5
160
100
AcDbEntity
  8
025-DWG
100
AcDbLine
 10
1114.537976
 20
773.319989
 30
0.421745
 11
1114.505141
 21
763.030891
 31
0.421745
  0
LINE
  5
161
100
AcDbEntity
  8
025-DWG
100
AcDbLine
 10
1113.561974
 20
773.382978
 30
0.421745
 11
1113.52921
 21
763.116274
 31
0.421745
  0
LINE
  5
162
100
AcDbEntity
  8
025-DWG
100
AcDbLine
 10
1112.569428
 20
773.382978
 30
0.421745
 11
1112.536941
 21
763.203086
 31
0.421745
  0
LWPOLYLINE
  5
163
100
AcDbEntity
  8
025-DWG
100
AcDbPolyline
 90
        2
 70
     0
 43
0.0
 38
0.421745
 10
1114.641766
 20
767.594243
 10
1114.662219
 20
773.629343
  0
LINE
  5
164
100
AcDbEntity
  8
035-DWG
100
AcDbLine
 10
1091.091479
 20
774.126177
 30
0.421745
 11
1090.85512
 21
765.1
 31
0.421745
  0
LWPOLYLINE
  5
165
100
AcDbEntity
  8
025-DWG
100
AcDbPolyline
 90
      124
 70
     0
 43
0.0
 38
0.421745
 10
1114.641766
 20
767.594243
 10
1114.641982
 20
767.557018
 10
1114.642198
 20
767.519794
 10
1114.642414
 20
767.48257
 10
1114.64263
 20
767.445346
 10
1114.642846
 20
767.408122
 10
1114.643063
 20
767.370898
 10
1114.643279
 20
767.333674
 10
1114.643495
 20
767.296451
 10
1114.643711
 20
767.259227
 10
1114.643927
 20
767.222004
 10
1114.644144
 20
767.184781
 10
1114.64436
 20
767.147558
 10
1114.644576
 20
767.110335
 10
1114.644792
 20
767.073112
 10
1114.645008
 20
767.03589
 10
1114.645225
 20
766.998667
 10
1114.645441
 20
766.961445
 10
1114.645657
 20
766.924222
 10
1114.645874
 20
766.887
 10
1114.64609
 20
766.849778
 10
1114.646306
 20
766.812556
 10
1114.646522
 20
766.775335
 10
1114.646739
 20
766.738113
 10
1114.646955
 20
766.700892
 10
1114.647171
 20
766.66367
 10
1114.647388
 20
766.626449
 10
1114.647604
 20
766.589228
 10
1114.647821
 20
766.552007
 10
1114.648037
 20
766.514786
 10
1114.648253
 20
766.477566
 10
1114.64847
 20
766.440345
 10
1114.648686
 20
766.403125
 10
1114.648903
 20
766.365904
 10
1114.649119
 20
766.328684
 10
1114.649336
 20
766.291464
 10
1114.649552
 20
766.254244
 10
1114.649768
 20
766.217024
 10
1114.649985
 20
766.179805
 10
1114.650201
 20
766.142585
 10
1114.650418
 20
766.105366
 10
1114.650634
 20
766.068146
 10
1114.650851
 20
766.030927
 10
1114.651067
 20
765.993708
 10
1114.651284
 20
765.956489
 10
1114.651501
 20
765.919271
 10
1114.651717
 20
765.882052
 10
1114.651934
 20
765.844834
 10
1114.65215
 20
765.807615
 10
1114.652367
 20
765.770397
 10
1114.652583
 20
765.733179
 10
1114.6528
 20
765.695961
 10
1114.653017
 20
765.658743
 10
1114.653233
 20
765.621525
 10
1114.65345
 20
765.584308
 10
1114.653667
 20
765.54709
 10
1114.653883
 20
765.509873
 10
1114.6541
 20
765.472656
 10
1114.654317
 20
765.435439
 10
1114.654533
 20
765.398222
 10
1114.65475
 20
765.361005
 10
1114.654967
 20
765.323788
 10
1114.655183
 20
765.286572
 10
1114.6554
 20
765.249355
 10
1114.655617
 20
765.212139
 10
1114.655834
 20
765.174923
 10
1114.65605
 20
765.137707
 10
1114.656267
 20
765.100491
 10
1114.656484
 20
765.063275
 10
1114.656701
 20
765.026059
 10
1114.656918
 20
764.988844
 10
1114.657134
 20
764.951628
 10
1114.657351
 20
764.914413
 10
1114.657568
 20
764.877198
 10
1114.657785
 20
764.839983
 10
1114.658002
 20
764.802768
 10
1114.658219
 20
764.765553
 10
1114.658435
 20
764.728339
 10
1114.658652
 20
764.691124
 10
1114.658869
 20
764.65391
 10
1114.659086
 20
764.616696
 10
1114.659303
 20
764.579481
 10
1114.65952
 20
764.542268
 10
1114.659737
 20
764.505054
 10
1114.659954
 20
764.46784
 10
1114.660171
 20
764.430626
 10
1114.660388
 20
764.393413
 10
1114.660605
 20
764.3562
 10
1114.660822
 20
764.318986
 10
1114.661039
 20
764.281773
 10
1114.661256
 20
764.24456
 10
1114.661473
 20
764.207348
 10
1114.66169
 20
764.170135
 10
1114.661907
 20
764.132922
 10
1114.662124
 20
764.09571
 10
1114.662341
 20
764.058498
 10
1114.662558
 20
764.021285
 10
1114.662775
 20
763.984073
 10
1114.662992
 20
763.946862
 10
1114.663209
 20
763.90965
 10
1114.663426
 20
763.872438
 10
1114.663643
 20
763.835227
 10
1114.663861
 20
763.798015
 10
1114.664078
 20
763.760804
 10
1114.664295
 20
763.723593
 10
1114.664512
 20
763.686382
 10
1114.664729
 20
763.649171
 10
1114.664946
 20
763.61196
 10
1114.665163
 20
763.57475
 10
1114.665381
 20
763.537539
 10
1114.665598
 20
763.500329
 10
1114.665815
 20
763.463119
 10
1114.666032
 20
763.425908
 10
1114.66625
 20
763.388699
 10
1114.666467
 20
763.351489
 10
1114.666684
 20
763.314279
 10
1114.666901
 20
763.277069
 10
1114.667119
 20
763.23986
 10
1114.667336
 20
763.202651
 10
1114.667553
 20
763.165441
 10
1114.66777
 20
763.128232
 10
1114.667988
 20
763.091023
 10
1114.668205
 20
763.053815
 10
1114.668422
 20
763.016606
  0
LINE
  5
166
100
AcDbEntity
  8
025-DWG
100
AcDbLine
 10
1114.641766
 20
767.594243
 30
0.421745
 11
1114.627169
 21
763.020215
 31
0.421745
  0
LWPOLYLINE
  5
167
100
AcDbEntity
  8
035-DWG
100
AcDbPolyline
 90
        5
 70
     0
 43
0.0
 38
0.421745
 10
1090.85512
 20
765.1
 10
1091.455515
 20
765.047472
 10
1093.229311
 20
764.892285
 10
1096.095588
 20
764.641519
 10
1115.229555
 20
762.967513
  0
LINE
  5
168
100
AcDbEntity
  8
025-DWG
100
AcDbLine
 10
1111.856273
 20
773.626348
 30
0.421745
 11
1112.848819
 21
773.626348
 31
0.421745
  0
LWPOLYLINE
  5
169
100
AcDbEntity
  8
025-DWG
100
AcDbPolyline
 90
        6
 70
     0
 43
0.0
 38
0.421745
 10
1112.569428
 20
773.382978
 10
1112.503667
 20
773.239929
 10
1112.368245
 20
773.151519
 10
1112.214888
 20
773.151519
 10
1112.102174
 20
773.239929
 10
1112.073155
 20
773.382978
  0
LINE
  5
16A
100
AcDbEntity
  8
025-DWG
100
AcDbLine
 10
1101.436133
 20
774.126177
 30
0.421745
 11
1114.604013
 21
774.126177
 31
0.421745
  0
LINE
  5
16B
100
AcDbEntity
  8
035-DWG
100
AcDbLine
 10
1114.556514
 20
775.1
 30
0.421745
 11
1101.557961
 21
775.1
 31
0.421745
  0
LINE
  5
16C
100
AcDbEntity
  8
035-DWG
100
AcDbLine
 10
1095.71698
 20
775.6
 30
0.421745
 11
1105.71698
 21
775.6
 31
0.421745
  0
LINE
  5
16D
100
AcDbEntity
  8
035-DWG
100
AcDbLine
 10
1095.71698
 20
775.1
 30
0.421745
 11
1095.71698
 21
775.6
 31
0.421745
  0
ELLIPSE
  5
16E
100
AcDbEntity
  8
025-DWG
100
AcDbEllipse
 10
1101.557961
 20
774.1
 30
0.421745
 11
-0.0000000000001439
 21
1.0
 31
0.0
210
0.0
220
0.0
230
1.0
 40
0.121869
 41
-0.0000000000011811
 42
1.544616388014916
  0
ELLIPSE
  5
16F
100
AcDbEntity
  8
025-DWG
100
AcDbEllipse
 10
1100.745749
 20
774.1
 30
0.421745
 11
0.0000000000002905
 21
1.0
 31
0.0
210
0.0
220
0.0
230
1.0
 40
0.654173
 41
0.0000000000004439
 42
1.544616388015124
  0
LWPOLYLINE
  5
170
100
AcDbEntity
  8
025-DWG
100
AcDbPolyline
 90
        3
 70
     0
 43
0.0
 38
0.421745
 10
1105.125332
 20
773.382978
 10
1105.074754
 20
773.555067
 10
1104.90845
 20
773.626348
  0
LINE
  5
171
100
AcDbEntity
  8
025-DWG
100
AcDbLine
 10
1104.90845
 20
773.626348
 30
0.421745
 11
1105.900996
 21
773.626348
 31
0.421745
  0
LINE
  5
172
100
AcDbEntity
  8
025-DWG
100
AcDbLine
 10
1101.436133
 20
774.126177
 30
0.421745
 11
1100.0918
 21
774.126177
 31
0.421745
  0
LINE
  5
173
100
AcDbEntity
  8
025-DWG
100
AcDbLine
 10
1103.915903
 20
773.626348
 30
0.421745
 11
1104.90845
 21
773.626348
 31
0.421745
  0
LWPOLYLINE
  5
174
100
AcDbEntity
  8
025-DWG
100
AcDbPolyline
 90
        3
 70
     0
 43
0.0
 38
0.421745
 10
1104.132786
 20
773.382978
 10
1104.082208
 20
773.555067
 10
1103.915903
 20
773.626348
  0
LWPOLYLINE
  5
175
100
AcDbEntity
  8
025-DWG
100
AcDbPolyline
 90
        6
 70
     0
 43
0.0
 38
0.421745
 10
1104.629059
 20
773.382978
 10
1104.563298
 20
773.239929
 10
1104.427876
 20
773.151519
 10
1104.274519
 20
773.151519
 10
1104.161805
 20
773.239929
 10
1104.132786
 20
773.382978
  0
LWPOLYLINE
  5
176
100
AcDbEntity
  8
025-DWG
100
AcDbPolyline
 90
        3
 70
     0
 43
0.0
 38
0.421745
 10
1104.90845
 20
773.626348
 10
1104.723836
 20
773.555067
 10
1104.629059
 20
773.382978
  0
LWPOLYLINE
  5
177
100
AcDbEntity
  8
025-DWG
100
AcDbPolyline
 90
        4
 70
     0
 43
0.0
 38
0.421745
 10
1103.915903
 20
773.626348
 10
1103.787648
 20
773.593743
 10
1103.685384
 20
773.504663
 10
1103.636512
 20
773.382978
  0
LINE
  5
178
100
AcDbEntity
  8
025-DWG
100
AcDbLine
 10
1102.103706
 20
773.626348
 30
0.421745
 11
1102.923357
 21
773.626348
 31
0.421745
  0
LWPOLYLINE
  5
179
100
AcDbEntity
  8
025-DWG
100
AcDbPolyline
 90
        4
 70
     0
 43
0.0
 38
0.421745
 10
1103.140239
 20
773.382978
 10
1103.122623
 20
773.504663
 10
1103.043238
 20
773.593743
 10
1102.923357
 20
773.626348
  0
LINE
  5
17A
100
AcDbEntity
  8
025-DWG
100
AcDbLine
 10
1102.148059
 20
773.319989
 30
0.421745
 11
1102.103706
 21
773.626348
 31
0.421745
  0
LWPOLYLINE
  5
17B
100
AcDbEntity
  8
025-DWG
100
AcDbPolyline
 90
        6
 70
     0
 43
0.0
 38
0.421745
 10
1102.643966
 20
773.382978
 10
1102.586912
 20
773.250429
 10
1102.468204
 20
773.160649
 10
1102.326143
 20
773.142604
 10
1102.206567
 20
773.202119
 10
1102.148059
 20
773.319989
  0
LWPOLYLINE
  5
17C
100
AcDbEntity
  8
025-DWG
100
AcDbPolyline
 90
        4
 70
     0
 43
0.0
 38
0.421745
 10
1102.923357
 20
773.626348
 10
1102.795102
 20
773.593743
 10
1102.692838
 20
773.504663
 10
1102.643966
 20
773.382978
  0
LINE
  5
17D
100
AcDbEntity
  8
025-DWG
100
AcDbLine
 10
1102.923357
 20
773.626348
 30
0.421745
 11
1103.915903
 21
773.626348
 31
0.421745
  0
LWPOLYLINE
  5
17E
100
AcDbEntity
  8
025-DWG
100
AcDbPolyline
 90
        6
 70
     0
 43
0.0
 38
0.421745
 10
1103.636512
 20
773.382978
 10
1103.570752
 20
773.239929
 10
1103.43533
 20
773.151519
 10
1103.281973
 20
773.151519
 10
1103.169258
 20
773.239929
 10
1103.140239
 20
773.382978
  0
LINE
  5
17F
100
AcDbEntity
  8
025-DWG
100
AcDbLine
 10
1107.886088
 20
773.626348
 30
0.421745
 11
1108.878634
 21
773.626348
 31
0.421745
  0
LWPOLYLINE
  5
180
100
AcDbEntity
  8
025-DWG
100
AcDbPolyline
 90
        4
 70
     0
 43
0.0
 38
0.421745
 10
1108.878634
 20
773.626348
 10
1108.750379
 20
773.593743
 10
1108.648114
 20
773.504663
 10
1108.599243
 20
773.382978
  0
LWPOLYLINE
  5
181
100
AcDbEntity
  8
025-DWG
100
AcDbPolyline
 90
        3
 70
     0
 43
0.0
 38
0.421745
 10
1108.10297
 20
773.382978
 10
1108.052393
 20
773.555067
 10
1107.886088
 20
773.626348
  0
LWPOLYLINE
  5
182
100
AcDbEntity
  8
025-DWG
100
AcDbPolyline
 90
        6
 70
     0
 43
0.0
 38
0.421745
 10
1108.599243
 20
773.382978
 10
1108.533482
 20
773.239929
 10
1108.39806
 20
773.151519
 10
1108.244704
 20
773.151519
 10
1108.131989
 20
773.239929
 10
1108.10297
 20
773.382978
  0
LWPOLYLINE
  5
183
100
AcDbEntity
  8
025-DWG
100
AcDbPolyline
 90
        4
 70
     0
 43
0.0
 38
0.421745
 10
1107.886088
 20
773.626348
 10
1107.757832
 20
773.593743
 10
1107.655568
 20
773.504663
 10
1107.606697
 20
773.382978
  0
LINE
  5
184
100
AcDbEntity
  8
025-DWG
100
AcDbLine
 10
1105.900996
 20
773.626348
 30
0.421745
 11
1106.893542
 21
773.626348
 31
0.421745
  0
LWPOLYLINE
  5
185
100
AcDbEntity
  8
025-DWG
100
AcDbPolyline
 90
        3
 70
     0
 43
0.0
 38
0.421745
 10
1107.110424
 20
773.382978
 10
1107.059847
 20
773.555067
 10
1106.893542
 20
773.626348
  0
LWPOLYLINE
  5
186
100
AcDbEntity
  8
025-DWG
100
AcDbPolyline
 90
        3
 70
     0
 43
0.0
 38
0.421745
 10
1106.117878
 20
773.382978
 10
1106.067301
 20
773.555067
 10
1105.900996
 20
773.626348
  0
LWPOLYLINE
  5
187
100
AcDbEntity
  8
025-DWG
100
AcDbPolyline
 90
        6
 70
     0
 43
0.0
 38
0.421745
 10
1106.614151
 20
773.382978
 10
1106.54839
 20
773.239929
 10
1106.412968
 20
773.151519
 10
1106.259611
 20
773.151519
 10
1106.146897
 20
773.239929
 10
1106.117878
 20
773.382978
  0
LWPOLYLINE
  5
188
100
AcDbEntity
  8
025-DWG
100
AcDbPolyline
 90
        4
 70
     0
 43
0.0
 38
0.421745
 10
1106.893542
 20
773.626348
 10
1106.765286
 20
773.593743
 10
1106.663022
 20
773.504663
 10
1106.614151
 20
773.382978
  0
LWPOLYLINE
  5
189
100
AcDbEntity
  8
025-DWG
100
AcDbPolyline
 90
        4
 70
     0
 43
0.0
 38
0.421745
 10
1105.900996
 20
773.626348
 10
1105.77274
 20
773.593743
 10
1105.670476
 20
773.504663
 10
1105.621605
 20
773.382978
  0
LWPOLYLINE
  5
18A
100
AcDbEntity
  8
025-DWG
100
AcDbPolyline
 90
        7
 70
     0
 43
0.0
 38
0.421745
 10
1105.621605
 20
773.382978
 10
1105.572734
 20
773.261293
 10
1105.470469
 20
773.172214
 10
1105.342214
 20
773.139608
 10
1105.222333
 20
773.172214
 10
1105.142948
 20
773.261293
 10
1105.125332
 20
773.382978
  0
LINE
  5
18B
100
AcDbEntity
  8
025-DWG
100
AcDbLine
 10
1106.893542
 20
773.626348
 30
0.421745
 11
1107.886088
 21
773.626348
 31
0.421745
  0
LWPOLYLINE
  5
18C
100
AcDbEntity
  8
025-DWG
100
AcDbPolyline
 90
        6
 70
     0
 43
0.0
 38
0.421745
 10
1107.606697
 20
773.382978
 10
1107.540936
 20
773.239929
 10
1107.405514
 20
773.151519
 10
1107.252157
 20
773.151519
 10
1107.139443
 20
773.239929
 10
1107.110424
 20
773.382978
  0
LWPOLYLINE
  5
18D
100
AcDbEntity
  8
025-DWG
100
AcDbPolyline
 90
        3
 70
     0
 43
0.0
 38
0.421745
 10
1112.073155
 20
773.382978
 10
1112.022577
 20
773.555067
 10
1111.856273
 20
773.626348
  0
LWPOLYLINE
  5
18E
100
AcDbEntity
  8
025-DWG
100
AcDbPolyline
 90
        4
 70
     0
 43
0.0
 38
0.421745
 10
1111.856273
 20
773.626348
 10
1111.728017
 20
773.593743
 10
1111.625753
 20
773.504663
 10
1111.576882
 20
773.382978
  0
LINE
  5
18F
100
AcDbEntity
  8
025-DWG
100
AcDbLine
 10
1109.87118
 20
773.626348
 30
0.421745
 11
1110.863727
 21
773.626348
 31
0.421745
  0
LWPOLYLINE
  5
190
100
AcDbEntity
  8
025-DWG
100
AcDbPolyline
 90
        3
 70
     0
 43
0.0
 38
0.421745
 10
1111.080609
 20
773.382978
 10
1111.030031
 20
773.555067
 10
1110.863727
 20
773.626348
  0
LWPOLYLINE
  5
191
100
AcDbEntity
  8
025-DWG
100
AcDbPolyline
 90
        4
 70
     0
 43
0.0
 38
0.421745
 10
1110.863727
 20
773.626348
 10
1110.735471
 20
773.593743
 10
1110.633207
 20
773.504663
 10
1110.584336
 20
773.382978
  0
LWPOLYLINE
  5
192
100
AcDbEntity
  8
025-DWG
100
AcDbPolyline
 90
        3
 70
     0
 43
0.0
 38
0.421745
 10
1110.088062
 20
773.382978
 10
1110.037485
 20
773.555067
 10
1109.87118
 20
773.626348
  0
LWPOLYLINE
  5
193
100
AcDbEntity
  8
025-DWG
100
AcDbPolyline
 90
        6
 70
     0
 43
0.0
 38
0.421745
 10
1110.584336
 20
773.382978
 10
1110.518575
 20
773.239929
 10
1110.383153
 20
773.151519
 10
1110.229796
 20
773.151519
 10
1110.117081
 20
773.239929
 10
1110.088062
 20
773.382978
  0
LWPOLYLINE
  5
194
100
AcDbEntity
  8
025-DWG
100
AcDbPolyline
 90
        3
 70
     0
 43
0.0
 38
0.421745
 10
1109.87118
 20
773.626348
 10
1109.686567
 20
773.555067
 10
1109.591789
 20
773.382978
  0
LWPOLYLINE
  5
195
100
AcDbEntity
  8
025-DWG
100
AcDbPolyline
 90
        3
 70
     0
 43
0.0
 38
0.421745
 10
1109.095516
 20
773.382978
 10
1109.044939
 20
773.555067
 10
1108.878634
 20
773.626348
  0
LINE
  5
196
100
AcDbEntity
  8
025-DWG
100
AcDbLine
 10
1108.878634
 20
773.626348
 30
0.421745
 11
1109.87118
 21
773.626348
 31
0.421745
  0
LWPOLYLINE
  5
197
100
AcDbEntity
  8
025-DWG
100
AcDbPolyline
 90
        6
 70
     0
 43
0.0
 38
0.421745
 10
1109.591789
 20
773.382978
 10
1109.526029
 20
773.239929
 10
1109.390607
 20
773.151519
 10
1109.23725
 20
773.151519
 10
1109.124535
 20
773.239929
 10
1109.095516
 20
773.382978
  0
LINE
  5
198
100
AcDbEntity
  8
025-DWG
100
AcDbLine
 10
1110.863727
 20
773.626348
 30
0.421745
 11
1111.856273
 21
773.626348
 31
0.421745
  0
LWPOLYLINE
  5
199
100
AcDbEntity
  8
025-DWG
100
AcDbPolyline
 90
        6
 70
     0
 43
0.0
 38
0.421745
 10
1111.576882
 20
773.382978
 10
1111.511121
 20
773.239929
 10
1111.375699
 20
773.151519
 10
1111.222342
 20
773.151519
 10
1111.109628
 20
773.239929
 10
1111.080609
 20
773.382978
  0
LINE
  5
19A
100
AcDbEntity
  8
035-DWG
100
AcDbLine
 10
1100.745749
 20
775.1
 30
0.421745
 11
1101.557961
 21
775.1
 31
0.421745
  0
LINE
  5
19B
100
AcDbEntity
  8
035-DWG
100
AcDbLine
 10
1105.71698
 20
775.1
 30
0.421745
 11
1105.71698
 21
775.6
 31
0.421745
  0
LWPOLYLINE
  5
19C
100
AcDbEntity
  8
035-DWG
100
AcDbPolyline
 90
        7
 70
     0
 43
0.0
 38
0.421745
 10
1115.164918
 20
774.115966
 10
1115.149966
 20
774.38205
 10
1115.097203
 20
774.653555
 10
1115.03364
 20
774.806894
 10
1114.895867
 20
774.975989
 10
1114.734375
 20
775.068868
 10
1114.556514
 20
775.1
  0
LWPOLYLINE
  5
19D
100
AcDbEntity
  8
025-DWG
100
AcDbPolyline
 90
        6
 70
     0
 43
0.0
 38
0.421745
 10
1114.556514
 20
775.1
 10
1114.564288
 20
775.085822
 10
1114.586433
 20
774.8712
 10
1114.598051
 20
774.579784
 10
1114.602801
 20
774.322778
 10
1114.604013
 20
774.126177
  0
ELLIPSE
  5
19E
100
AcDbEntity
  8
025-DWG
100
AcDbEllipse
 10
1114.664927
 20
774.113088
 30
0.421745
 11
0.4999917225104582
 21
0.0028770507667781
 31
0.0
210
0.0
220
0.0
230
1.0
 40
0.027079
 41
-0.000000000001634
 42
1.692773513601811
  0
LWPOLYLINE
  5
19F
100
AcDbEntity
  8
025-DWG
100
AcDbPolyline
 90
       14
 70
     0
 43
0.0
 38
0.421745
 10
1114.604013
 20
774.126177
 10
1114.604234
 20
774.087728
 10
1114.604455
 20
774.049279
 10
1114.604677
 20
774.01083
 10
1114.604898
 20
773.972381
 10
1114.605119
 20
773.933932
 10
1114.605341
 20
773.895484
 10
1114.605562
 20
773.857036
 10
1114.605783
 20
773.818587
 10
1114.606005
 20
773.780139
 10
1114.606226
 20
773.741691
 10
1114.606447
 20
773.703243
 10
1114.606669
 20
773.664796
 10
1114.60689
 20
773.626348
  0
LWPOLYLINE
  5
1A0
100
AcDbEntity
  8
025-DWG
100
AcDbPolyline
 90
        2
 70
     0
 43
0.0
 38
0.421745
 10
1114.662219
 20
773.629343
 10
1114.60689
 20
773.626348
  0
LINE
  5
1A1
100
AcDbEntity
  8
025-DWG
100
AcDbLine
 10
1113.841365
 20
773.626348
 30
0.421745
 11
1114.60689
 21
773.626348
 31
0.421745
  0
LWPOLYLINE
  5
1A2
100
AcDbEntity
  8
025-DWG
100
AcDbPolyline
 90
        4
 70
     0
 43
0.0
 38
0.421745
 10
1113.841365
 20
773.626348
 10
1113.713109
 20
773.593743
 10
1113.610845
 20
773.504663
 10
1113.561974
 20
773.382978
  0
LINE
  5
1A3
100
AcDbEntity
  8
025-DWG
100
AcDbLine
 10
1114.662219
 20
773.629343
 30
0.421745
 11
1114.537976
 21
773.319989
 31
0.421745
  0
LWPOLYLINE
  5
1A4
100
AcDbEntity
  8
025-DWG
100
AcDbPolyline
 90
        3
 70
     0
 43
0.0
 38
0.421745
 10
1114.058247
 20
773.382978
 10
1114.00767
 20
773.555067
 10
1113.841365
 20
773.626348
  0
LWPOLYLINE
  5
1A5
100
AcDbEntity
  8
025-DWG
100
AcDbPolyline
 90
        6
 70
     0
 43
0.0
 38
0.421745
 10
1114.537976
 20
773.319989
 10
1114.449193
 20
773.202119
 10
1114.314331
 20
773.142604
 10
1114.176905
 20
773.160649
 10
1114.081256
 20
773.250429
 10
1114.058247
 20
773.382978
  0
LWPOLYLINE
  5
1A6
100
AcDbEntity
  8
025-DWG
100
AcDbPolyline
 90
        3
 70
     0
 43
0.0
 38
0.421745
 10
1113.065701
 20
773.382978
 10
1113.015124
 20
773.555067
 10
1112.848819
 20
773.626348
  0
LWPOLYLINE
  5
1A7
100
AcDbEntity
  8
025-DWG
100
AcDbPolyline
 90
        4
 70
     0
 43
0.0
 38
0.421745
 10
1112.848819
 20
773.626348
 10
1112.720563
 20
773.593743
 10
1112.618299
 20
773.504663
 10
1112.569428
 20
773.382978
  0
LINE
  5
1A8
100
AcDbEntity
  8
025-DWG
100
AcDbLine
 10
1112.848819
 20
773.626348
 30
0.421745
 11
1113.841365
 21
773.626348
 31
0.421745
  0
LWPOLYLINE
  5
1A9
100
AcDbEntity
  8
025-DWG
100
AcDbPolyline
 90
        6
 70
     0
 43
0.0
 38
0.421745
 10
1113.561974
 20
773.382978
 10
1113.496213
 20
773.239929
 10
1113.360791
 20
773.151519
 10
1113.207434
 20
773.151519
 10
1113.09472
 20
773.239929
 10
1113.065701
 20
773.382978
  0
ARC
  5
1AA
100
AcDbEntity
  8
035-DWG
100
AcDbCircle
 10
1092.091137
 20
774.1
 30
0.421745
 40
1.0
100
AcDbArc
 50
90.0
 51
178.5
  0
LINE
  5
1AB
100
AcDbEntity
  8
035-DWG
100
AcDbLine
 10
1092.091137
 20
775.1
 30
0.421745
 11
1100.745749
 21
775.1
 31
0.421745
  0
LINE
  5
1AC
100
AcDbEntity
  8
025-DWG
100
AcDbLine
 10
1100.0918
 20
774.126177
 30
0.421745
 11
1091.091479
 21
774.126177
 31
0.421745
  0
ENDSEC
  0
SECTION
  2
OBJECTS
  0
DICTIONARY
  5
1A
100
AcDbDictionary
  3
ACAD_GROUP
350
18
  3
ACAD_MLINESTYLE
350
19
  0
DICTIONARY
  5
18
102
{ACAD_REACTORS
330
1A
102
}
100
AcDbDictionary
  0
DICTIONARY
  5
19
102
{ACAD_REACTORS
330
1A
102
}
100
AcDbDictionary
  3
STANDARD
350
1D
  0
MLINESTYLE
  5
1D
102
{ACAD_REACTORS
330
19
102
}
100
AcDbMlineStyle
  2
STANDARD
 70
     0
  3

 62
     0
 51
90.0
 52
90.0
 71
     2
 49
0.5
 62
   256
  6
BYLAYER
 49
-0.5
 62
   256
  6
BYLAYER
  0
ENDSEC
  0
EOF
